1000 A.D. (Chrono Trigger) Guitar Tab

Submitted: Oct 03, 2007 by Jon Wagner (Last updated: Dec 04, 2010)

0
Download | Listen
Game: Chrono Trigger
Composer(s): Nobuo Uematsu, Yasunori Mitsuda, Noriko Matsueda
Style: 2 or more instruments, Transcription
Series: Chrono

This song is also called Peaceful Days

AutoScroll: Slow | Medium | Fast
     Peaceful days
this is the wrong key but its just right for the guitar :)
u dont need to tune ur guitar to anything its just going to
sound dropped a step or two..... no worries :) 

  Q=90 just in case u guys are wondering "Q" stands for
quater note "E" stands for 8th note and "H" stands for half note.....
also "S" palm mute after playing the note and "+" before a letter
(example: "+H") means make that note a gost note
 4/4
  Gtr II
  Q Q Q Q       Q Q Q Q    E   E E W Q  H  H     Q  Q  E E E E
|-7-5-4-2-----|-5-4-2-0----0-|-2-4-2-----------|----4--5-4-2-0--|
|-------------|--------------|-------9-12-14---|*7--------------|
|-------------|--------------|-----------------|read farther down|
|-------------|--------------|-----------------|down to know what|
|-------------|--------------|-----------------|the "*" is for--|
|-------------|--------------|-----------------|----------------|

  Q.   E H      Q  Q  E E E E   H.      E  E    Q   E E Q  Q
|-7----2-2----|----4--5-4-2-0-|-7-------9-11-|-12--11-9-7--4--|
|-------------|-7-------------|--------------|----------------|
|-------------|---------------|--------------|----------------|
|-------------|---------------|--------------|----------------|
|-------------|---------------|--------------|----------------|
|-------------|---------------|--------------|----------------|

  Q  E E Q  Q    E  E  E  E  Q  E  E    H     Q.   E   Q  E E Q  E E
|-9--7-5-4--2--|-0-------------------|-------------7-|-9--7-9-7--2-5-|
|--------------|---11-12-16-14--9-12-|-12----14------|---------------|
|--------------|---------------------|---------------|---------------|
|--------------|---------------------|---------------|---------------|
|--------------|---------------------|---------------|---------------|
|--------------|---------------------|---------------|---------------|

  Q  E E Q  E E   Q  E E Q  Q    W
|-5--4-2-1--2-4-|-5--4-2-0--2--|-0----|
|---------------|--------------|------|
|---------------|--------------|------|
|---------------|--------------|------|
|---------------|--------------|------|
|---------------|--------------|------|
play everything above all the way the the "*" over top of the next part
if u dont know where to overlap listin to the MIDI 

  Gtr I
  W                             Q       E    S S E  E    E    E
|-----------------------------|--------------5-4-5--4----2----0---|
|-----------------------------|-----------------------------------|
|-----------------------------|-----------------------------------|
|-----------------------------|-----------------------------------|
|-----------------------------|-----------------------------------|
|-----------------------------|-----------------------------------|
|
| Gtr II
| E S S S S S S E S S S S S S   E  S S  S S  S S E  S S  S S  S S
|-----------------------------|-----------------------------------|
|---7---7---7-----7---7---7---|---12---12---12-----11---11---11---|
|-----------------------------|-----------------------------------|
|-----------------------------|-----------------------------------|
|-----------------------------|-----------------------------------|
|-----------------------------|-----------------------------------|

  E E   Q       +H                +H                  Q.              E
|-2-4---------------------------|-----------------------------------------|
|-------7-------(7)-------------|-(7)-----------------9--------------11---|
|-------------------------------|-----------------------------------------|
|-------------------------------|-----------------------------------------|
|-------------------------------|-----------------------------------------|
|-------------------------------|-----------------------------------------|
|
| E S S S S S S  E  S S S S S S    E   S S  S S  S S  S  S  S S  S S  S S
|-------------------------------|-----------------------------------------|
|---7---7---7-------7---7---7---|-----11---11---11---12----12---11---11---|
|-------------------------------|-----------------------------------------|
|-------------------------------|-----------------------------------------|
|-------------------------------|-----------------------------------------|
|-------------------------------|-----------------------------------------|

   H                 H                   E  E    E    E    E  E    Q
|-------------------------------------|------------------------------------|
|-12----------------16----------------|-17-16---14---12---14-16------------|
|-------------------------------------|---------------------------19-------|
|-------------------------------------|------------------------------------|
|-------------------------------------|------------------------------------|
|-------------------------------------|------------------------------------|
|
|  E  S S  S S  S S  E  S S  S S  S S    E  S S  S S  S S  E  S S  S S S S
|-------------------------------------|------------------------------------|
|----12---12---12------11---11---11---|-----9----9----9-------7----7---5---|
|-------------------------------------|------------------------------------|
|-------------------------------------|------------------------------------|
|-------------------------------------|------------------------------------|
|-------------------------------------|------------------------------------|

   H.                   Q         H             H
|-------------------------------|--------------------------------|
|-12--------------------5-------|-9-------------7----------------|
|-------------------------------|--------------------------------|
|-------------------------------|--------------------------------|
|-------------------------------|--------------------------------|
|-------------------------------|--------------------------------|
|
|  E  S S S S S S E S S S S S S   E S S S S S S S S S S  S S S S
|-------------------------------|---------------2---0------------|
|-----7---7---7-----9---9---9---|---5---5---5-----------11---7---|
|-------------------------------|--------------------------------|
|-------------------------------|--------------------------------|
|-------------------------------|--------------------------------|
|-------------------------------|--------------------------------|

   H                 Q       E    E     Q  E E   H
|-------------------------------------|------5---4--------------|
|-12----------------14-------7---11---|-------------------------|
|-------------------------------------|-------------------------|
|-------------------------------------|-------------------------|
|-------------------------------------|-------------------------|
|-------------------------------------|-------------------------|
|
|  E  S S  S S  S S  E  S S  S S  S S   Q  E S S E S S S S S S
|-------------------------------------|-------------------------|
|----12---12---12------11---11---11---|------7-----4---4---4----|
|-------------------------------------|-------------------------|
|-------------------------------------|-------------------------|
|-------------------------------------|-------------------------|
|-------------------------------------|-------------------------|

  Q     E   E   Q     Q         H             +Q.    E
|-5-----4---2---0-----2-------|-0-------------(0)----4-|
|-----------------------------|------------------------|
|-----------------------------|------------------------|
|-----------------------------|------------------------|
|-----------------------------|------------------------|
|-----------------------------|------------------------|
|
| E S S S S S S E S S S S S S   E S S S S S S  Q   Q
|-----------------------------|------------------------|
|---9---9---9-----5---5---5---|---4---7---5----4-------|
|-----------------------------|------------------------|
|-----------------------------|------------------------|
|-----------------------------|------------------------|
|-----------------------------|------------------------|

  Q     E   E   Q     Q         W
|-5-----4---2---0-----2-------|-0-------------------*|
|-----------------------------|---------------------*|
|-----------------------------|---------------------*|
|-----------------------------|---------------------*|
|-----------------------------|---------------------*|
|-----------------------------|---------------------*|
|
| E S S S S S S E S S S S S S   E S S S S S S Q  Q
|-----------------------------|---------------------*|
|---9---9---9-----5---5---5---|---4---7---5---4-----*|
|-----------------------------|---------------------*|
|-----------------------------|---------------------*|
|-----------------------------|---------------------*|
|-----------------------------|---------------------*|
Login or Register to remove this ad.

1 comment on 1000 A.D.

Thanks for the tab - but the

Thanks for the tab - but the start doesn't sound right when I play it for some reason. Is anyone else having this problem?