Millennial Fair (Chrono Trigger) Guitar Tab

Submitted: Oct 03, 2007 by Calebelijah (Last updated: Sep 20, 2009)

4.42857
Average: 4.4 (7 votes)
Download | Listen
Game: Chrono Trigger
Composer(s): Nobuo Uematsu, Yasunori Mitsuda, Noriko Matsueda
Style: 2 or more instruments, Transcription
Series: Chrono

This song is also called Leene Square

Click here for a video example.

AutoScroll: Slow | Medium | Fast
                                Millenial Fair                                  

Lead Gtr
E||-------|-------|-------|-------|-------|-------|-------|-------||--------|
B||-------|-------|-------|-------|-------|-------|-------|-------||--------|
G||-------|-------|-------|-------|-------|-------|-------|-------||*-------|
D||-------|-------|-------|-------|-------|-------|-------|-------||*-------|
A||-------|-------|-------|-------|-------|-------|-------|-------||--------|
E||-------|-------|-------|-------|-------|-------|-------|-------||--------|

                                                           Q.     E  E  E
-------|-------|-------|-------|-------|-------|-------|-------------------|
-------|-------|-------|-------|-------|-------|-------|--10------8-----7--|
-------|-------|-------|-------|-------|-------|-------|-------------------|
-------|-------|-------|-------|-------|-------|-------|-------------------|
-------|-------|-------|-------|-------|-------|-------|-------------------|
-------|-------|-------|-------|-------|-------|-------|-------------------|

  H        E  E     E  E  E  E  E  E     H        Q        Q.     E  E   E
-----------------|--------------------|----------------|--------------------|
-----------------|--7--8--7-----------|----------------|--------------------|
--9--------7--9--|-----------9-----7--|----------------|----------7---------|
-----------------|--------------------|--7-------------|--10------------10--|
-----------------|--------------------|----------------|--------------------|
-----------------|--------------------|----------------|--------------------|

  Q.      E  E  E     Q.     S S  Q       Q.     Q.         Q.     E  E  E
-------------------|-------------------|----------------|-------------------|
-------------------|-------------------|----------------|--10------8-----7--|
-------------------|-------------------|----------------|-------------------|
--9------10-----9--|--7------9-7-------|--7-------------|-------------------|
-------------------|-------------10----|----------------|-------------------|
-------------------|-------------------|----------------|-------------------|

  H        E  E     E  E  E  E  E  E     H        Q        Q.     E  E   E
-----------------|--------------------|----------------|--------------------|
-----------------|--7--8--7-----------|----------------|--------------------|
--9--------7--9--|-----------9-----7--|----------------|----------7---------|
-----------------|--------------------|--7-------------|--10------------10--|
-----------------|--------------------|----------------|--------------------|
-----------------|--------------------|----------------|--------------------|

  Q.     E  E  E     Q.     S S Q       Q.     Q.            Q.      E  E   E
------------------|------------------|----------------|--15g17------15-----14--|
---------7-----8--|--7------8-7------|--7-------------|------------------------|
--9---------------|-------------9----|----------------|------------------------|
------------------|------------------|----------------|------------------------|
------------------|------------------|----------------|------------------------|
------------------|------------------|----------------|------------------------|

   H         E   E      E   E   E   E  E   E      H        Q
--------------------|--14--15--14-------------|-----------------|
--17--------15--17--|--------------17-----15--|-----------------|
--------------------|-------------------------|--14-------------|
--------------------|-------------------------|-----------------|
--------------------|-------------------------|-----------------|
--------------------|-------------------------|-----------------|

   Q.      E  E   E      Q.      E  E   E      Q.      S  S  Q
---------------------|---------------------|----------------------|
----------15---------|---------------------|----------------------|
--17-------------17--|--16------17-----16--|--14------16-14-------|
---------------------|---------------------|----------------17----|
---------------------|---------------------|----------------------|
---------------------|---------------------|----------------------|

   Q.     Q.            Q.      E  E   E      H         E   E
-----------------|--15g17------15-----14--|--------------------|
-----------------|------------------------|--17--------15--17--|
--14-------------|------------------------|--------------------|
-----------------|------------------------|--------------------|
-----------------|------------------------|--------------------|
-----------------|------------------------|--------------------|

   E   E   E   E  E   E      H        Q        Q.      E  E   E
--14--15--14-------------|-----------------|---------------------|
--------------17-----15--|-----------------|----------15---------|
-------------------------|--14-------------|--17-------------17--|
-------------------------|-----------------|---------------------|
-------------------------|-----------------|---------------------|
-------------------------|-----------------|---------------------|

   Q.      E  E   E      Q.      S  S  Q        Q.     Q.
----------14-----15--|--14------15-14-------|--14-------------|
--17-----------------|----------------17----|-----------------|
---------------------|----------------------|-----------------|
---------------------|----------------------|-----------------|
---------------------|----------------------|-----------------|
---------------------|----------------------|-----------------|

  Q     E  E   E  E      Q.     E   E  E     Q     E  E   E  E
---------------------|--------------------|---------------------|
-------15-----15-----|--17---------17-----|-------15-----15-----|
---------------------|--------------------|---------------------|
---------------------|--------------------|---------------------|
---------------------|--------------------|---------------------|
---------------------|--------------------|---------------------|

   Q.     E   E  E         H         Q        Q     Q     Q
--------------------|--14g15--------17----|--14----------------|
--17---------17-----|---------------------|--------17----15----|
--------------------|---------------------|--------------------|
--------------------|---------------------|--------------------|
--------------------|---------------------|--------------------|
--------------------|---------------------|--------------------|

   H.                      Q     E  E   E  E      Q.     E   E  E
----------------|-------|---------------------|--------------------|
--17------------|-------|-------15-----15-----|--17---------17-----|
----------------|-------|---------------------|--------------------|
----------------|-------|---------------------|--------------------|
----------------|-------|---------------------|--------------------|
----------------|-------|---------------------|--------------------|

  Q     E  E   E  E      Q.     E   E  E         H         Q
---------------------|--------------------|--14g15--------17----|
-------15-----15-----|--17---------17-----|---------------------|
---------------------|--------------------|---------------------|
---------------------|--------------------|---------------------|
---------------------|--------------------|---------------------|
---------------------|--------------------|---------------------|

   Q     Q     Q        H.              H.              H.
--14----------------|----------------|---------------|---------------|
--------17----15----|--17------------|--L------------|--L------------|
--------------------|----------------|---------------|---------------|
--------------------|----------------|---------------|---------------|
--------------------|----------------|---------------|---------------|
--------------------|----------------|---------------|---------------|

  Q     S  S  S  S  Q        H.              H.              H.
-------14-15-14-12-------|----------------|---------------|---------------|
--L----------------15----|--17------------|--L------------|--L------------|
-------------------------|----------------|---------------|---------------|
-------------------------|----------------|---------------|---------------|
-------------------------|----------------|---------------|---------------|
-------------------------|----------------|---------------|---------------|

  H.                  H         E  E      H         E  E
---------------|--15g17--------17-----|--17--------17-----|
--L------------|----------------------|-------------------|
---------------|----------------------|-------------------|
---------------|----------------------|-------------------|
---------------|----------------------|-------------------|
---------------|----------------------|-------------------|

      E  E   Q     Q        H         Q        H         E  E
--17g19-----17----15----|--14--------------|-------------------|
------------------------|------------17----|--15--------17-----|
------------------------|------------------|-------------------|
------------------------|------------------|-------------------|
------------------------|------------------|-------------------|
------------------------|------------------|-------------------|

   H         Q        H.               H.                  H         E  E
------------14----|----------------|----------------|--15g17--------17-----|
--17--------------|--17------------|---L------------|----------------------|
------------------|----------------|----------------|----------------------|
------------------|----------------|----------------|----------------------|
------------------|----------------|----------------|----------------------|
------------------|----------------|----------------|----------------------|

   H         E  E         E  E   Q     Q        H         Q
--17--------17-----|--17g19-----17----15----|--14--------------|
-------------------|------------------------|------------17----|
-------------------|------------------------|------------------|
-------------------|------------------------|------------------|
-------------------|------------------------|------------------|
-------------------|------------------------|------------------|

   H         E  E      H         Q        H.               H.
-------------------|------------14----|----------------|----------------|
--15--------17-----|--17--------------|--17------------|---L------------|
-------------------|------------------|----------------|----------------|
-------------------|------------------|----------------|----------------|
-------------------|------------------|----------------|----------------|
-------------------|------------------|----------------|----------------|

                                                  E   E   E   E   E   E
---------------|---------------|---------------|---------10------10------|
---------------|---------------|---------------|-----10------10------10--|
---------------|---------------|---------------|-------------------------|
---------------|---------------|---------------|-------------------------|
---------------|---------------|---------------|-------------------------|
---------------|---------------|---------------|-------------------------|

                                                   Q     Q     E   E
---------------|---------------|---------------|--14----15----14------|
---------------|---------------|---------------|------------------17--|
---------------|---------------|---------------|----------------------|
---------------|---------------|---------------|----------------------|
---------------|---------------|---------------|----------------------|
---------------|---------------|---------------|----------------------|

   Q    H                                           E   E   E   E   E   E
-----------------|---------------|---------------|---------10------10------|
--15-------------|---------------|---------------|-----10------10------10--|
-----------------|---------------|---------------|-------------------------|
-----------------|---------------|---------------|-------------------------|
-----------------|---------------|---------------|-------------------------|
-----------------|---------------|---------------|-------------------------|

   Q     Q     E  E      Q     Q     Q        E   E   E   E   E   E
--------14----15-----|--15----17----14----|--15--14------------------|
--17-----------------|--------------------|----------17--15--14------|
---------------------|--------------------|----------------------16--|
---------------------|--------------------|--------------------------|
---------------------|--------------------|--------------------------|
---------------------|--------------------|--------------------------|

   E  E  H
--------------------||
--------------------||
--14--------------*-||
------------------*-||
--------------------||
--------------------||

Duration Legend
---------------
W - whole
H - half
Q - quarter
E - 8th
S - 16th
T - 32nd
X - 64th
. - note dotted
|-n-|  - n-tuplets





                                Millenial Fair                                  

Rhythm
      Q     Q     Q        Q     S   S   E   Q        H         Q
E||--10----------------|--------------------------|------------------|
B||--------10----12----|--13----12h-13p-12--10----|------------10----|
G||--------------------|--------------------------|--12--------------|
D||--------------------|--------------------------|------------------|
A||--------------------|--------------------------|------------------|
E||--------------------|--------------------------|------------------|

   H         Q       Q     Q     E  E      Q     Q     Q
------------------|--------------------|--------------------|
------------------|--------------------|--------10----12----|
--11--------------|--9----11----12-----|--12----------------|
------------12----|--------------------|--------------------|
------------------|--------------------|--------------------|
------------------|--------------------|--------------------|

   E  Q     S S  S E.      E  E  H             Q    E  S E.  E
-----------------------|------------------||--------------------|
--10-------10---10-----|--10--------------||---7-------7-----7--|
---9--------9----9-----|---9--------------||*--7-------7-----7--|
--11-------11---11-----|--11--------------||*--7-------7-----7--|
-----------------------|------------------||--------------------|
-----------------------|------------------||--------------------|

  Q    Q    Q       Q    E  S E.  E     Q    Q    Q       Q    E  S E.  E
-----------------|-------------------|-----------------|-------------------|
--8----7---------|--7-------7-----7--|--8----7---------|--7-------7-----7--|
--7----L----9----|--7-------7-----7--|--7----L----9----|--7-------7-----7--|
--7----L----7----|--7-------7-----7--|--7----L----7----|--7-------7-----7--|
-----------------|-------------------|-----------------|-------------------|
-----------------|-------------------|-----------------|-------------------|

  Q    Q    Q       Q    E  S E.  E     Q    Q    Q       Q    E  S E.  E
-----------------|-------------------|-----------------|-------------------|
--8----7---------|--7-------7-----7--|--8----7---------|--7-------7-----7--|
--7----L----9----|--7-------7-----7--|--7----L----9----|--7-------7-----7--|
--7----L----7----|--7-------7-----7--|--7----L----7----|--7-------7-----7--|
-----------------|-------------------|-----------------|-------------------|
-----------------|-------------------|-----------------|-------------------|

  Q    Q    Q       Q    E  S E.  E     Q    Q    Q       Q.     E  E  E
-----------------|-------------------|-----------------|------------------|
--8----7---------|--7-------7-----7--|--8----7---------|--5------5-----5--|
--7----L----9----|--7-------7-----7--|--7----L----9----|--5------5-----5--|
--7----L----7----|--7-------7-----7--|--7----L----7----|--5------5-----5--|
-----------------|-------------------|-----------------|------------------|
-----------------|-------------------|-----------------|------------------|

  Q.     E  E  E     Q    E  S E.  E     Q    Q    Q       Q    E  S E.  E
------------------|-------------------|-----------------|-------------------|
--5------5-----5--|--7-------7-----7--|--8----7---------|--7-------7-----7--|
--5------5-----5--|--7-------7-----7--|--7----L----9----|--7-------7-----7--|
--5------5-----5--|--7-------7-----7--|--7----L----7----|--7-------7-----7--|
------------------|-------------------|-----------------|-------------------|
------------------|-------------------|-----------------|-------------------|

  Q    Q    Q       Q    E  S E.  E     Q    Q    Q       Q.     E  E  E
-----------------|-------------------|-----------------|------------------|
--8----7---------|--7-------7-----7--|--8----7---------|--5------5-----5--|
--7----L----9----|--7-------7-----7--|--7----L----9----|--5------5-----5--|
--7----L----7----|--7-------7-----7--|--7----L----7----|--5------5-----5--|
-----------------|-------------------|-----------------|------------------|
-----------------|-------------------|-----------------|------------------|

  Q.     E  E  E     Q    E  S E.  E     Q    Q    Q       Q    E  S E.  E
------------------|-------------------|-----------------|-------------------|
--5------5-----5--|--7-------7-----7--|--7----8----7----|--7-------7-----7--|
--5------5-----5--|--7-------7-----7--|--7----L----7----|--7-------7-----7--|
--5------5-----5--|--7-------7-----7--|--7----L----7----|--7-------7-----7--|
------------------|-------------------|-----------------|-------------------|
------------------|-------------------|-----------------|-------------------|

  Q    Q    Q       Q    E  S E.  E     Q    Q    Q       Q.     E  E  E
-----------------|-------------------|-----------------|------------------|
--8----7---------|--7-------7-----7--|--8----7---------|--5------5-----5--|
--7----L----9----|--7-------7-----7--|--7----L----9----|--5------5-----5--|
--7----L----7----|--7-------7-----7--|--7----L----7----|--5------5-----5--|
-----------------|-------------------|-----------------|------------------|
-----------------|-------------------|-----------------|------------------|

  Q.     E  E  E     Q    E  S E.  E     Q    Q    Q       Q    E  S E.  E
------------------|-------------------|-----------------|-------------------|
--5------5-----5--|--7-------7-----7--|--8----7---------|--7-------7-----7--|
--5------5-----5--|--7-------7-----7--|--7----L----9----|--7-------7-----7--|
--5------5-----5--|--7-------7-----7--|--7----L----7----|--7-------7-----7--|
------------------|-------------------|-----------------|-------------------|
------------------|-------------------|-----------------|-------------------|

  Q    Q    Q       Q    E  S E.  E     Q    Q    Q       Q.     E  E  E
-----------------|-------------------|-----------------|------------------|
--8----7---------|--7-------7-----7--|--8----7---------|--5------5-----5--|
--7----L----9----|--7-------7-----7--|--7----L----9----|--5------5-----5--|
--7----L----7----|--7-------7-----7--|--7----L----7----|--5------5-----5--|
-----------------|-------------------|-----------------|------------------|
-----------------|-------------------|-----------------|------------------|

  Q.     E  E  E     Q    E  S E.  E     Q    Q    Q       Q    E  E  E  E
------------------|-------------------|-----------------|-------------------|
--5------5-----5--|--7-------7-----7--|--7----8----7----|-------------------|
--5------5-----5--|--7-------7-----7--|--7----L----7----|-------7-----7-----|
--5------5-----5--|--7-------7-----7--|--7----L----7----|-------9-----9-----|
------------------|-------------------|-----------------|-------------------|
------------------|-------------------|-----------------|-------------------|

   Q.     E   E  E     Q    E  E  E  E      Q.     E   E  E
--------------------|-------------------|--------------------|
--------------------|-------8-----8-----|--10---------10-----|
---9----------9-----|-------7-----7-----|---9----------9-----|
--11---------11-----|-------9-----9-----|--11---------11-----|
--------------------|-------------------|--------------------|
--------------------|-------------------|--------------------|

  Q    E  E  E  E     Q.     E  E  E     Q.     E  E  E     Q    E  E  E  E
-------------------|------------------|------------------|-------------------|
-------8-----8-----|--7---------7-----|--5---------5-----|-------5-----5-----|
-------7-----7-----|--7---------7-----|--6---------6-----|-------6-----6-----|
-------9-----9-----|--7---------7-----|--7---------7-----|-------7-----7-----|
-------------------|------------------|------------------|-------------------|
-------------------|------------------|------------------|-------------------|

  Q    E  E  E  E      Q.     E   E  E     Q    E  E  E  E
-------------------|--------------------|-------------------|
-------------------|--------------------|-------8-----8-----|
-------7-----7-----|---9----------9-----|-------7-----7-----|
-------9-----9-----|--11---------11-----|-------9-----9-----|
-------------------|--------------------|-------------------|
-------------------|--------------------|-------------------|

   Q.     E   E  E     Q    E  E  E  E     Q.     E  E  E     Q    E  E  E  E
--------------------|-------------------|------------------|--3-------3-----3--|
--10---------10-----|-------8-----8-----|--7---------7-----|--5-------5-----5--|
---9----------9-----|-------7-----7-----|--7---------7-----|--5-------5-----5--|
--11---------11-----|-------9-----9-----|--7---------7-----|-------------------|
--------------------|-------------------|------------------|-------------------|
--------------------|-------------------|------------------|-------------------|

  Q    E  E  E  E     Q    E  E  E  E     Q    E  E  E  E     Q    E  E  E  E
--3-------3-----3--|--3-------3-----3--|--3-------3-----3--|--5-------5-----5--|
--5-------3-----5--|--5-------5-----5--|--5-------5-----3--|--5-------5-----5--|
--5-------4-----5--|--5-------5-----5--|--5-------5-----4--|--6-------6-----6--|
-------------------|-------------------|-------------------|-------------------|
-------------------|-------------------|-------------------|-------------------|
-------------------|-------------------|-------------------|-------------------|

  Q    E  E  E  E     Q    E  E  E  E     Q    Q     Q       Q    Q    Q
--5-------------5--|--5-------5-----5--|--5----7-----9----|--5----3----2----|
--5-------8-----5--|--5-------5-----5--|--5----8----10----|-----------------|
--6-------6-----6--|--6-------6-----6--|--6----7-----9----|-----------------|
-------------------|-------------------|------------------|-------0----4----|
-------------------|-------------------|------------------|-----------------|
-------------------|-------------------|------------------|--2--------------|

  Q    Q    Q       Q    Q    Q       Q    Q    Q       Q    Q    Q
--0--------------|-----------------|-----------------|-----------------|
-------3----2----|--0--------------|--0----2----3----|--3---------3----|
-----------------|------------2----|------------2----|------------1----|
--L----0----4----|-------0----5----|-------0---------|-------2---------|
-----------------|-----------------|-----------------|-----------------|
-----------------|--3--------------|-----------------|--4--------------|

  Q    Q    Q       Q    Q    Q       Q    Q    Q       Q    Q    Q
-------0----2----|-----------------|-----------------|--5----3----2----|
--3--------------|--3----2---------|--2---------3----|-----------------|
--L---------1----|------------4----|-------2---------|-----------------|
-------2---------|------------2----|-----------------|-------0----4----|
-----------------|--0--------------|-----------------|-----------------|
-----------------|-----------------|-----------------|--2--------------|

  Q    Q    Q       Q    Q    Q       Q    Q    Q       Q    Q    Q
--0--------------|-----------------|-----------------|-----------------|
-------3----2----|--0--------------|--0----2----3----|--3---------3----|
-----------------|------------2----|------------2----|------------1----|
--L----0----4----|-------0----5----|-------0---------|-------2---------|
-----------------|-----------------|-----------------|-----------------|
-----------------|--3--------------|-----------------|--4--------------|

  Q    Q    Q       Q    Q    Q       Q    Q    Q        Q     Q     Q
-------0----2----|-----------------|-----------------|--10----------------|
--3--------------|--3----2---------|--2---------3----|--------10----12----|
--L---------1----|------------4----|-------2----L----|--------------------|
-------2---------|------------2----|--L--------------|--------------------|
-----------------|--0----L---------|-----------------|--------------------|
-----------------|-----------------|-----------------|--------------------|

   Q     S   S   E   Q        H         Q        H        Q
--------------------------|------------------|-----------------|
--13----12h-13p-12--10----|------------10----|-----------------|
--------------------------|--12--------------|--11-------------|
--------------------------|------------------|-----------------|
--------------------------|------------------|-----------------|
--------------------------|------------------|-----------------|

   Q     Q     Q        Q     S   S   E   Q        Q     Q     Q
--10----------------|--------------------------|--15----14----12----|
--------10----12----|--13----12h-13p-12--10----|--------------------|
--------------------|--------------------------|--------------------|
--------------------|--------------------------|--------------------|
--------------------|--------------------------|--------------------|
--------------------|--------------------------|--------------------|

   H        Q        Q     Q     Q        Q     S   S   E   Q
--14-------------|--10----------------|--------------------------|
-----------------|--------10----12----|--13----12h-13p-12--10----|
-----------------|--------------------|--------------------------|
-----------------|--------------------|--------------------------|
-----------------|--------------------|--------------------------|
-----------------|--------------------|--------------------------|

   H         Q        H         Q       Q     Q     E  E      Q     Q     Q
------------------|------------------|--------------------|--------------------|
------------10----|------------------|--------------------|--------10----12----|
--12--------------|--11--------------|--9----11----12-----|--12----------------|
------------------|------------12----|--------------------|--------------------|
------------------|------------------|--------------------|--------------------|
------------------|------------------|--------------------|--------------------|

   E  Q     S S  S E.      E  E  H
-----------------------|--------------------||
--10-------10---10-----|--10----------------||
---9--------9----9-----|---9--------------*-||
--11-------11---11-----|--11--------------*-||
-----------------------|--------------------||
-----------------------|--------------------||

Duration Legend
---------------
W - whole
H - half
Q - quarter
E - 8th
S - 16th
T - 32nd
X - 64th
. - note dotted
|-n-|  - n-tuplets
Login or Register to remove this ad.

4 comments on Millennial Fair

Uhh... May I ask where the

Uhh... May I ask where the acoustic came in?

:D

fuck best song ever lol can

fuck best song ever lol

can you tell me what pre amps you use??

[email protected]

cheers man i love you

Bass tab?

5

If you could put the bass tab up here that would make this even more awesome...cause the song sounds really cool.

I made one.