Ads

Main Theme (Chrono Trigger) Bass Tab

Submitted: Feb 08, 2009 by auriplane

5
Average: 5 (1 vote)
Download | Listen
Game: Chrono Trigger
Composer(s): Nobuo Uematsu, Yasunori Mitsuda, Noriko Matsueda
Style: Transcription
Series: Chrono

This song is also called Chrono Trigger

AutoScroll: Slow | Medium | Fast
                      Chrono Trigger - Main Theme BASS TAB
                           Song by Yasunori Mitsuda

                    Tabbed by auriplane ([email protected])

This is based on the soundtrack version.  The version that plays in the 
game's intro is the same, except that Part A repeats three times instead 
of two.  So, if you're playing along with the SNES, pretend I wrote 3x.

This song is pretty simple, just don't let your ear be confused by the
timpani into thinking you should be playing notes when you're not.

Five-string bass, standard tuning.

            Intro

      G |----------------|----------------|----------------|----------------|
      D |----------------|----------------|----------------|----------------|
      A |0---0-0---0-0---|0---0-0---0-0---|----------------|----------------|
      E |----------------|----------------|2---2-2---2-2---|2---2-2---2-2---|
      B |----------------|----------------|----------------|----------------|

      G |----------------|----------------|----------------|----------------|
      D |----------------|----------------|----------------|----------------|
      A |----------------|----------------|----------------|----------------|
      E |1---1-1---1-1---|1---1-1---1-1---|0---0-0---0-0---|0---0-0---0-0---|
      B |----------------|----------------|----------------|----------------|

            Part A

    / G |----------------|----------------|----------------|----------------|
   |  D |----------------|----------------|----------------|----------------|
   |  A |0---0-0---0-0---|0---0-0---0-0---|----------------|----------------|
   |  E |----------------|----------------|2---2-2---2-2---|2---2-2---2-2---|
   |  B |----------------|----------------|----------------|----------------|
   |
   |  G |----------------|----------------|----------------|----------------|
   |  D |----------------|----------------|----------------|----------------|
   |  A |0---0-0---0-0---|0---0-0---0-0---|----------------|----------------|
   |  E |----------------|----------------|2---2-2---2-2---|2---2-2---2-2---|
   |  B |----------------|----------------|----------------|----------------|
2x |
   |  G |----------------|----------------|----------------|----------------|
   |  D |----------------|----------------|----------------|----------------|
   |  A |----------------|----------------|----------------|----------------|
   |  E |1---1-1---1-1---|1---1-1---1-1---|0---0-0---0-0---|0---0-0---0-0---|
   |  B |----------------|----------------|----------------|----------------|
   |
   |  G |----------------|----------------|----------------|----------------|
   |  D |----------------|----------------|----------------|----------------|
   |  A |----------------|----------------|----------------|----------------|
   |  E |----------------|1---1-1---1-1---|0---0-0---0-0---|0---0-0---0-0---|
    \ B |1---1-1---1-1---|----------------|----------------|----------------|

            Part B

      G |----------------|----------------|----------------|----------------|
      D |----------------|----------------|----------------|----------------|
      A |----------------|0---------------|2---------------|--------0-------|
      E |3---------------|----------------|----------------|----------------|
      B |----------------|----------------|----------------|----------------|

      G |----------------|----------------|----------------|----------------|
      D |----------------|----------------|----------------|----------------|
      A |----------------|----------------|2---------------|--------0-------|
      E |3---------------|2---------------|----------------|----------------|
      B |----------------|----------------|----------------|----------------|

      G |----------------|----------------|----------------|----------------|
      D |----------------|----------------|----------------|----------------|
      A |----------------|0---------------|2---------------|--------0-------|
      E |3---------------|----------------|----------------|----------------|
      B |----------------|----------------|----------------|----------------|

      G |----------------|----------------|
      D |----------------|----------------|
      A |----------------|----------------|
      E |3---------------|2---------------|
      B |----------------|----------------|

            Part C

    / G |----------------|----------------|----------------|----------------|
   |  D |----------------|----------------|----------------|----------------|
2x |  A |------3---------|------3---------|------5---------|------5-7-5-----|
   |  E |---3------------|---3--------3---|---5------------|---5--------5---|
    \ B |1-------1-------|1-------1-------|3-------3-------|3-------------3-|

      G |----------------|----------------|
      D |----------------|----------------|
      A |----------------|----------------|
      E |----------------|----------------|
      B |55-55-55-55-55-5|5---------------|

Login or Register to remove this ad.

3 comments on Main Theme

Please to making a guitar

Please to making a guitar version?

Sure, gimme a sec. I still

Sure, gimme a sec. I still haven't finished a SoM tab for someone else though @[email protected];

Here you go