Gato's Song (Chrono Trigger) Bass Tab

Submitted: Feb 08, 2009 by auriplane

5
Average: 5 (1 vote)
Download | Listen
Game: Chrono Trigger
Composer(s): Nobuo Uematsu, Yasunori Mitsuda, Noriko Matsueda
Style: Transcription
Series: Chrono

This song is also called Gonzales' Song

AutoScroll: Slow | Medium | Fast
        Chrono Trigger - Gonzales' Song (A.K.A. Gato's Song) BASS TAB
                         Song by Yasunori Mitsuda

                  Tabbed by auriplane ([email protected])


     H.          E E  H.          E E  H.          E E  H.          E E
  G |----------------|----------------|----------------|----------------|
  D |0-----------7-5-|0-------------0-|0-----------7-5-|0---------------|
  A |----------------|------------3---|----------------|------------3-5-|
  E |----------------|----------------|----------------|----------------|

     H.          E E  H.          E E  H.          Q   (Q)  Q   H
  G |----------------|----------------|----------------|----------------|
  D |----------------|----------------|----------------|----0---0-------|
  A |0-------------0-|0-------------0-|0-----------0---(0)--------------|
  E |------------3---|------------3---|----------------|----------------|
Login or Register to remove this ad.