Frog's Theme (Chrono Trigger) Guitar Tab

Submitted: Feb 09, 2009 by c4ndym4n (Last updated: Jan 15, 2010)

5
Average: 5 (6 votes)
Download | Listen
Game: Chrono Trigger
Composer(s): Nobuo Uematsu, Yasunori Mitsuda, Noriko Matsueda
Style: Arrangement, Fingerstyle
Series: Chrono

AutoScroll: Slow | Medium | Fast
Frog's Theme
~Chrono Trigger~
Composed By: Yasunori Mitsuda
Arranged By: Gabriel Lewicki

Tuning:
   If you have a capo
      - tune strings 5 and 6 down two steps
      - clamp capo on 1st fret
   If you don't have a capo
      - tune strings 5 and 6 down one and a half steps
      - tune strings 1, 2, 3 and 4 up half a step

Guitar (Capo 1)

      |--3--|            |--3--|     |--3--|            |--3--|   
      E  E  E  Q    Q    E  E  E     E  E  E  Q    Q    E  E  E   
E||-------------------------------|------------------------------|
B||-------------------------------|------------------------------|
G||*--0-----0-------0----2-----3--|--2--0--2---------------------|
D||*-----3-----0------------------|-----------3------------------|
F||---2--------2----2----2--2--2--|--0--------0----0----0--0--0--|
C||-------------------------------|------------------------------|


  |--3--|            |--3--|     |--3--|            |--3--|   
  E  E  E  Q    Q    E  E  E     E  E  E  Q    Q    E  E  E   
------------------------------|------------------------------|
------------------------------|--------1---------------------|
--0-----0-------0----2-----3--|--2--3-----2------------------|
-----3-----0------------------|------------------------------|
------------------------------|--0--------0----0----0--0--0--|
--3--------3----3----3--3--3--|------------------------------|


  |--3--|            |--3--|     |--3--|            |--3--|   
  E  E  E  Q    Q    E  E  E     E  E  E  Q    Q    E  E  E   
------------------------------|------------------------------|
------------------------------|------------------------------|
--0-----0-------0----2-----3--|--2--0--2---------------------|
-----3-----0------------------|-----------3------------------|
--2--------2----2----2--2--2--|--0--------0----0----0--0--0--|
------------------------------|------------------------------|


  |--3--|            |--3--|     |--3--|  |--3--|            
  E  E  E  Q    Q    E  E  E     E  E  E  E  E  E  H         
------------------------------|-----------------------------|
------------------------------|-----------------------------|
--0-----0--2----3----2--------|--0-----0--0-----0--0--------|
-----3------------------------|-----3--------3--------------|
----------------0----0--0--0--|--2--0--2--2--0--2--2--------|
--3--------3------------------|-----------------------------|


  |--3-|  |--3--|                    |--3--|       |--3-|   
  Q    E  E  E  E  Q    Q       Q    E  E  E  Q    Q    E   
------------------------3----|-----------------------------|
--3----3--3-----1--3---------|--6-------------3------------|
--3-------3--3--3--3----3----|--3----3--3--3--3----3----3--|
-----------------------------|-----------------------------|
--2-------2--------2----2----|--5----5--------5----5-------|
-----------------------------|-----------------------------|


       |--3--|               |--3--|  |--3--|  |--3--|  |--3--|   
  Q    E  E  E  Q    Q       E  E  E  E  E  E  E  E  E  E  E  E   
--------------------------|-----------------------------------1--|
--------------------------|-----------------1-----1--3--1--3-----|
--0----0--0--0--0----0----|--2--2--3--2--3--2--2--2-----2-----2--|
--------------------------|--5-----------------------------------|
--------------------------|--0--------0--------0--------0--------|
--3----3--------3----3----|--------------------------------------|


  |--3-|  |--3--|                    |--3--|             
  Q    E  E  E  E  Q    Q       Q    E  E  E  Q    Q     
------------------------3----|--5-------6--5------------|
--3----3--3-----1--3---------|----------------8----6----|
--3-------3--3--3--3----3----|--------------------------|
-----------------------------|--7----7--7--7--7----7----|
--2-------2--------2----2----|--0----0--------0----0----|
-----------------------------|--------------------------|


       |--3--|                    |--3--|  |-3|    |--3-|   
  Q    E  E  E  Q    Q       Q    E  E  E  E  Q    Q    E   
--3-----------------------|--3-------------5---------------|
--------------------------|--------------------------------|
--0----0--0--0--0----0----|--0----0--0--0--2-------2-------|
--------------------------|-------------------5----4----4--|
--------------------------|--------------------------------|
--3----3--------3----3----|--2----2--------2-------2-------|


  |--3-|  |--3--|               |--3--|  |--3--|  |--3--|        
  Q    E  E  E  E  Q    Q       E  E  E  E  E  E  E  E  E  Q     
--6----6--6--5--3--1---------|--3-----3--3--1-------------------|
------------------------3----|-----------------4--3-------------|
--0-------0--------2----2----|-----0-----0--------2--2--0--2----|
------------------------5----|----------------------------------|
-------------------0----0----|--------------------2--------2----|
--3-------3-----3------------|--3--------3-----3----------------|


  |--3-|  |--3--|               |--3--|  |--3--|  |--3--|  |--3--|   
  Q    E  E  E  E  Q    Q       E  E  E  E  E  E  E  E  E  E  E  E   
--6----6--6--5--3--1---------|--3-----------------5-----------------|
------------------------3----|--------------------------------------|
--0-------0--------2----2----|--------------------------------------|
-----------------------------|--2--2--2--2--2--2--4--4--4--4--4--4--|
-------------------0----0----|--------------------------------------|
--3-------3-----3------------|--0--------0--------2--------2--------|


  |--3-|  |--3--|               |--3--|  |--3--|  |--3--|        
  Q    E  E  E  E  Q    Q       E  E  E  E  E  E  E  E  E  Q     
--6----6--6--5--3--1---------|--3-----3--3--1-------------------|
------------------------3----|-----------------4--3-------------|
--0-------0--------2----2----|-----0-----0--------2--2--0--2----|
-----------------------------|----------------------------------|
-------------------0----0----|--------------------2--------2----|
--3-------3-----3------------|--3--------3-----3----------------|


  |--3-|  |--3--|                    |--3--|              
  Q    E  E  E  E  Q    Q       Q    E  E  E  H           
--6----6--6--5--6--8----5----|--5-------------3---------||
-----------------------------|--------------------------||
--0-------0------------------|-------0--0--0--0--------*||
-------------------7----7----|--3----0--0--0--0--------*||
-------------------0----0----|--2----2--------2---------||
--3-------3-----3------------|--------------------------||




Duration Legend
---------------
W - whole
H - half
Q - quarter
E - 8th
S - 16th
T - 32nd
X - 64th
. - note dotted
|-n-|  - n-tuplets
Login or Register to remove this ad.

2 comments on Frog's Theme

How come this tab is still

5

How come this tab is still unrated ??? O_o
You've done an excellent job.
Keep it going !

great tab

5

yeah i agree with you doom