Burn! Bobonga! (Chrono Trigger) Bass/Guitar Tab

Submitted: Oct 03, 2007 by Juja (Last updated: Apr 05, 2010)

4.833335
Average: 4.8 (6 votes)
Download | Listen
Game: Chrono Trigger
Composer(s): Nobuo Uematsu, Yasunori Mitsuda, Noriko Matsueda
Style: Transcription
Series: Chrono

AutoScroll: Slow | Medium | Fast
Game: Chrono Trigger
Song: "Burn! Bobonga!"
Composed by: Nobuo Uematsu
Tabbed by: Not So Great Juja (Paul Horses)

Key:
~ = vibrato
p = pull-off
h = hammer-on
b = bend
/ = slide
pm = palm-mute
tr = tremolo picking

This bass part just repeats the entire time.

G|--------------------------------|
D|--------------------------------|
A|-3-4-4-4-5-4-3-5-4-3-5-4-2-3-4--|
E|-1-2-2-2-3-2-1-3-2-1-3-2-0-1-2--| 

Here are the guitar parts:

e|1h2--2-1h2--2-3p2--2-1h2--2-5--3--2--|
B|1h2--2-1h2--2-3p2--2-1h2--2----0--2--|
G|----------------------------2--------|
D|-------------------------------------| x2
A|-------------------------------------|
E|-------------------------------------| 

e|----------------------------------------------|
B|/7-7h8-7~---5h7-8h10-7~-----------------------|
G|----------6-------------6-6/9~\7\6---6b(7)6~--|
D|-----------------------------------9----------|
A|----------------------------------------------|
E|----------------------------------------------| 

e|---------------------------/9~p7---------------------|
B|/7-7h8-7~---5h7-8h10-7~-7-7------10--10p8-7-7\5h8p7--|
G|----------6------------------------------------------|
D|-----------------------------------------------------|
A|-----------------------------------------------------|
E|-----------------------------------------------------| 

If you're playing on an acoustic guitar you might want
to just pick every note because some of those slides and stuff
might not hold out so well.

After this, it plays the bass part twice and then repeats.
Login or Register to remove this ad.

3 comments on Burn! Bobonga!

Perfect song thank you!!!!!!

Perfect song thank you!!!!!!

BRIAN NOOO!!

BRIAN NOOO!!

This is a fantastic

5

This is a fantastic tablature, thanks for making this. I am actually using this tab to transcribe it to play both parts on electric bass using some slap style, chords, and a few frills of my own.