Battle Theme 1 (Chrono Trigger) Bass Tab

Submitted: Feb 08, 2009 by auriplane (Last updated: Dec 04, 2010)

4.666665
Average: 4.7 (3 votes)
Download | Listen
Game: Chrono Trigger
Composer(s): Nobuo Uematsu, Yasunori Mitsuda, Noriko Matsueda
Style: Transcription
Series: Chrono

AutoScroll: Slow | Medium | Fast
                       Chrono Trigger - Battle BASS TAB
                           Song by Yasunori Mitsuda

                    Tabbed by auriplane ([email protected])

I think this is the easiest way to play it.  If it seems like a big
stretch, it's actually not, you just move your hand while you play it.
But if you have trouble, change the 7 on the D string into a 12 on the
A string.

Four-string bass, standard tuning.

      G |------------------------------------------------|
      D |------------------------------------------------|
      A |------------8-----------------------8-----------|
      E |10----------------10----------10----------10----|

      G |------------------------------------------------|
      D |------------------------------------7-h10h12----|
      A |------------8-----------------------------------|
      E |10----------------10----------10----------------|

      G |------------------------------------------------|
      D |------------------------------------------------|
      A |------------8-----------------------8-----------|
      E |10----------------10----------10----------10----|

      G |------------------------------------------------|
      D |------------------------12----10----------------|
      A |------------8-----------------------12p10p8-----|
      E |10----------------10----------------------------|

Login or Register to remove this ad.

1 comment on Battle Theme 1

I actually just played this

I actually just played this on my guitar cause my stupid hofner bass is all wierd, and this is a nice tab =)