Ads

Lower Norfair (Super Metroid) Guitar Tab

Submitted: Feb 04, 2015 by JordanVS

5
Average: 5 (3 votes)
Download | Listen
Game: Super Metroid
Composer(s): Kenji Yamamoto, Minako Hamano
Style: Arrangement, Fingerstyle
Series: Metroid

This song is also called Ridley's Lair

AutoScroll: Slow | Medium | Fast
Lower Norfair                                             
Ridley's Lair
Super Metroid 
Kenji Yamamoto & Minako Hamano
JordanVS

-4/4
-Tempo : 132

     W                   H        H           W                   H        H         
E||-------------------|--------------------|-------------------|--------------------|
B||-------------------|--------------------|-------------------|--------------------|
G||--0----------------|--1-----------------|--0----------------|--1-----------------|
D||--2----------------|--3-----------------|--2----------------|--3-----------------|
A||--3----------------|--4-----------------|--3----------------|--4-----------------|
E||-------------------|--------------------|-------------------|--------------------|


                                                                                   |--3--|   
  W                   H        H           Q    E  E  Q    E  E     Q    Q    Q    E  E  E   
-------------------|--------------------|------------------------|--------------------------|
-------------------|--------------------|--1----------1----------|--1----2----4----2-----2--|
--0----------------|--1-----------------|----------3----------3--|--------------------3-----|
--2----------------|--3-----------------|--2---------------------|--3-----------------------|
--3----------------|--4-----------------|--3---------------------|--4-----------------------|
-------------------|--------------------|------------------------|--------------------------|


                                                                                    |--3--|   
  Q    Q    H           W                   Q    E  E  Q    E  E     Q    Q    Q    E  E  E   
---------------------|-------------------|------------------------|-----------------------1--|
--1------------------|-------------------|--1----------1----------|--1----2----4----4--4-----|
---------------------|-------------------|----------3----------3--|--------------------------|
--2------------------|--3----------------|--2---------------------|--3-----------------------|
--3------------------|--4----------------|--3---------------------|--4-----------------------|
---------------------|-------------------|------------------------|--------------------------|


                                                                                    |--3--|   
  Q    Q    H           W                   Q    E  E  Q    E  E     Q    Q    Q    E  E  E   
---------------------|-------------------|------------------------|-------0----2----0-----0--|
--1------------------|-------------------|--4-------2--4-------2--|--4-----------------2-----|
---------------------|-------------------|--0----------0----------|--1---------1-------------|
--2------------------|--3----------------|--1---------------------|--2-----------------------|
--3------------------|--4----------------|------------------------|--------------------------|
---------------------|-------------------|------------------------|--------------------------|


                                                                                        |--3--|   
  Q    Q    Q    Q       Q    Q    Q    Q       Q    E  E  Q    E  E     Q    Q    Q    E  E  E   
----------------------|----------------------|------------------------|-------0----2----2--2--4--|
--4-------------------|----------------------|--4-------2--4-------2--|--4-----------------------|
--0---------0---------|--1---------1---------|--0----------0----------|--1---------1-------------|
--1-------------------|--2-------------------|--1---------------------|--2-----------------------|
----------------------|----------------------|------------------------|--------------------------|
----------------------|----------------------|------------------------|--------------------------|


                                                                                        |--3--|   
  Q    Q    Q    Q       Q    Q    Q    Q       Q    E  E  Q    E  E     Q    Q    Q    E  E  E   
----------------------|----------------------|--2-------0--2-------0--|--2----3----5----3--0--3--|
--4-------------------|----------------------|------------------------|--0---------0-------------|
--0---------0---------|--1---------1---------|--3----------3----------|--0-----------------------|
--1-------------------|--2-------------------|--4---------------------|--------------------------|
----------------------|----------------------|------------------------|--------------------------|
----------------------|----------------------|------------------------|--------------------------|


                                                                                        |--3--|   
  Q    Q    Q    Q       Q    Q    Q    Q       Q    E  E  Q    E  E     Q    Q    Q    E  E  E   
--2-------------------|----------------------|--2-------0--2-------0--|--2----3----5----5--5--7--|
----------------------|----------------------|------------------------|--0---------0-------------|
--3---------3---------|--4---------4---------|--3----------3----------|--0-----------------------|
--4-------------------|--5-------------------|--4---------------------|--------------------------|
----------------------|----------------------|------------------------|--------------------------|
----------------------|----------------------|------------------------|--------------------------|


                                                                                        |--3--|   
  Q    Q    Q    Q       Q    Q    Q    Q       Q    E  E  Q    E  E     Q    Q    Q    E  E  E   
--2-------------------|----------------------|--0----------0----------|--0----1----3----1-----1--|
----------------------|----------------------|--2-------3--2-------3--|------------3-------3-----|
--3---------3---------|--4---------4---------|--2---------------------|--3-----------------------|
--4-------------------|--5-------------------|------------------------|--------------------------|
----------------------|----------------------|--0----------0----------|--1---------1-------------|
----------------------|----------------------|------------------------|--------------------------|


                                                                                        |--3--|   
  Q    Q    Q    Q       Q    Q    Q    Q       Q    E  E  Q    E  E     Q    Q    Q    E  E  E   
--0-------------------|----------------------|--0----------0----------|--0----1----3----3--3--5--|
--2---------2---------|--3---------3---------|--2-------3--2-------3--|------------3-------------|
--2-------------------|--3-------------------|--2---------------------|--3-----------------------|
----------------------|----------------------|------------------------|--------------------------|
--0---------0---------|--1---------1---------|--0----------0----------|--1---------1-------------|
----------------------|----------------------|------------------------|--------------------------|


  Q    Q    Q    Q       Q    Q    Q    Q         Q    Q    Q    E  E     Q    Q    Q    E  E   
--0-------------------|----------------------||---5----3----1----0-----|--1----0---------0-----|
--2---------2---------|--3---------3---------||------------------------|--3---------3----------|
--2-------------------|--3-------------------||*--6--------------------|-----------------------|
----------------------|----------------------||*-----------------------|-----------------------|
--0---------0---------|--1---------1---------||---0----0----0----0--0--|--1----1----1----1--1--|
----------------------|----------------------||------------------------|-----------------------|


  Q    Q    Q    E  E     Q    Q    Q    E  E     Q    E  S S Q    E  S S    Q    Q    Q    Q     
--5----3----1----3-----|--1----0---------0-----|--------------------------|----------------------|
--2--------------------|--3---------3----------|--------------------------|------------1---------|
-----------------------|-----------------------|--2-------3-3-2-------3-3-|--2----3----0----3----|
-----------------------|-----------------------|--2-------3-3-2-------3-3-|--2----3---------3----|
--0----0----0----0--0--|--1----1----1----1--1--|--0-----------0-----------|--1---------1---------|
-----------------------|-----------------------|--------------------------|----------------------|


  Q    E  S S Q    E  S S    Q    Q    Q    Q       Q    E  S S Q    E  S S    Q    Q    Q    Q     
--------------------------|-----------------0----|--------------------------|------------0---------|
--------------------------|------------1---------|--1-------2-2-1-------2-2-|--1----2----0----2----|
--2-------3-3-2-------3-3-|--2----3--------------|--0-------1-1-0-------1-1-|--0----1---------1----|
--2-----------------------|--0-------------------|--------------------------|----------------------|
--0-----------------------|--1-------------------|--3-----------3-----------|--4---------4---------|
--------------0-----------|------------1---------|--------------------------|----------------------|


  Q    E  S S Q    E  S S    Q    Q    Q    Q       Q    E  S S Q    E  S S    Q    Q    Q    Q     
--------------------------|-----------------3----|----------0-0---------0-0-|-------0----2----0----|
--1-------2-2-1-------2-2-|--1----2----4---------|--4-------0-0-4-------0-0-|--4----0----2----0----|
--0-----------------------|----------------------|--3-----------3-----------|--3-------------------|
--------------------------|--3-------------------|--1----1------1----1------|--2----2----2----2----|
--3-----------------------|--4-------------------|--------------------------|----------------------|
--------------3-----------|------------4---------|--------------------------|----------------------|


  Q    E  S S Q    E  S S    Q    Q    Q    Q         W                   H        H         
----------0-0---------0-0-|-------0----2----6-----||-------------------|--------------------|
--4-------0-0-4-------0-0-|--4----0----2----5-----||-------------------|--------------------|
--3-----------3-----------|--3-------------------*||--0----------------|--1-----------------|
--1----1------1----1------|----------------------*||--2----------------|--3-----------------|
--------------------------|-----------------------||--3----------------|--4-----------------|
--------------------------|--0----0----0----0-----||-------------------|--------------------|

									*Da Capo
  W                   H        H           W                   H        H          
-------------------|--------------------|-------------------|--------------------||
-------------------|--------------------|-------------------|--------------------||
--0----------------|--1-----------------|--0----------------|--1-----------------||
--2----------------|--3-----------------|--2----------------|--3-----------------||
--3----------------|--4-----------------|--3----------------|--4-----------------||
-------------------|--------------------|-------------------|--------------------||




Duration Legend
---------------
W - whole
H - half
Q - quarter
E - 8th
S - 16th
T - 32nd
X - 64th
. - note dotted
|-n-|  - n-tuplets


Tablature Legend
----------------
L - tied note
^ - brush up
v - brush down
Login or Register to remove this ad.

1 comment on Lower Norfair

Nice!

5

Nice!