Ads

Overworld Theme (Super Mario World) Mandolin Tab

Submitted: Jun 04, 2009 by LoneCentrist (Last updated: Feb 04, 2010)

4.666665
Average: 4.7 (3 votes)
Download | Listen
Game: Super Mario World
Composer(s): Koji Kondo
Style: Transcription
Series: Mario

AutoScroll: Slow | Medium | Fast
Overworld Theme
Super Mario World
Composed by Koji Kondo
Tabbed by Rob Van
6/3/09


E|------------------------------------------------------------|
A|-0----------------------3-0------0--------------------1-0---|
D|----3----0-3-3--0---3-3-----5-------3----0-3-3--0---3-----0-|
G|-------5----------5--------------------5----------5---------|

E|------------------------------------------------------------|
A|-0----------------------3-0------0--------------------1-0---|
D|----3----0-3-3--0---3-3-----5-------3----0-3-3--0---3-----0-|
G|-------5----------5--------------------5----------5---------|

E|-------------------------------------------------|
A|-0-----0----------------------0-----0----------3-|
D|---3-----3--6-3---6--5----------3-----3--6-3-----|
G|-----5----------5-----------------5----------5---|

E|----------------------------|
A|-0----------------0---------|
D|----3----0-3-3--5---3---0-3-|
G|-------5--------------5-----|

E|-----------------------|
A|---3-5-3-5-3--1-0------|
D|------------------5--3-|
G|-5---------------------|

E|--------------------------------------------------------------|
A|---------0------------------0------------0-1-3-5--------------|
D|-3-0-3-5---6-5-3----3-0-3-5------3-0-3-5------------3-0-3-5-3-|
G|--------------------------------------------------------------|
Login or Register to remove this ad.

2 comments on Overworld Theme

nice tab

nice tab

decent tab

most of its right
but the end of first two lines doesn't sound right