Ads

Forest of Illusion (Super Mario World) Guitar Tab

Submitted: Jun 23, 2016 by MechaKrauser

5
Average: 5 (3 votes)
Download | Listen
Game: Super Mario World
Composer(s): Koji Kondo
Style: Arrangement, Fingerstyle
Series: Mario

AutoScroll: Slow | Medium | Fast
Forest of Illusion
from Super Mario World
music by Koji Kondo
tab by MechaKrauser

Drop D, capo 5
4/4 time, 130bpm


      S  S E  S  S E  E  E  E  E     E  E  E  E  E  E  Q       S  S E  S  S E  E  E  E  E   
E||----------------------3--L--3--|--2----------------------|---------------------3--L--3--|
B||----------------------4--L-----|-------------------------|---------------------4--L-----|
G||*--0h-2-0--0h-2-0--0-----------|-----2--2--2--2----------|--0h-2-0--0h-2-0--0-----------|
D||*------------------------------|--------0-----3--4--L----|------------------------------|
A||-----------1-------------------|-------------------------|----------1-------------------|
D||---1---------------------------|--0----------------------|--1---------------------------|


  E  E  E  E  E  E  Q       E  E  E  E  E  E  Q       E  E  E  E  E  E  Q     
--2----------------------|-------------------------|-------------------------|
-------------------------|-------------------------|-------------------------|
-----2--2--2--2----------|--5--3--3--5--3--3--5----|--4--2--2--4--2--2--4----|
--------0-----3--4--L----|--3--------3--------3----|--2--------2--------2----|
-------------------------|--4--------4--------4----|--3--------3--------3----|
--0----------------------|-------------------------|-------------------------|


  E  E  E  E  E  E  E  E     E  E  Q    H           
-----------------------3--|-----2--L----L---------||
--------------------------|-----------------------||
--5--3--3--5--3--3--5-----|----------------------*||
--3--------3--------3-----|--2-------------------*||
--4--------4--------4-----|--3--------------------||
--------------------------|-----------------------||




Duration Legend
---------------
W - whole
H - half
Q - quarter
E - 8th
S - 16th
T - 32nd
X - 64th
. - note dotted
|-n-|  - n-tuplets


Tablature Legend
----------------
L - tied note
x - dead note
g - grace note
(n) - ghost note
> - accentuded note
NH - natural harmonic
AH - artificial harmonic
TH - tapped harmonic
SH - semi harmonic
PH - pitch harmonic
h - hammer on
p - pull off
b - bend
br - bendRelease
pb - preBend
pbr - preBendRelease
brb - bendReleaseBend
\n/ - tremolo bar dip
\n - tremolo bar dive
-/n - tremolo bar Release up
/n\ - tremolo bar inverted dip
/n - tremolo bar return
-\n - tremolo bar Release down
S - shift slide
s - legato slide
/ -  slide into from below or out of upwards
\ -  slide into from above or out of downwards
~ - vibrato
W - wide vibrato
tr - trill
TP - tremolo picking
T - tapping
S - slap
P - pop
< - fade in
^ - brush up
v - brush down
Login or Register to remove this ad.