Ads

Castle (Super Mario World) Guitar Tab

Submitted: Jul 17, 2012 by JordanVS

5
Average: 5 (5 votes)
Download | Listen
Game: Super Mario World
Composer(s): Koji Kondo
Style: Arrangement, Fingerstyle
Series: Mario

AutoScroll: Slow | Medium | Fast
Castle Theme                                 
Sub Castle
Super Mario World
Koji Kondo
JordanVS



*Standard Tuning
*No Capo



     E  S S S S S S S S  Q.          S S S S S S S S S S S S S S S S  
E||-----------------8-9-15------||---1-1-1-1-1-1-1-1-1-1-1-1-1-1-1-1-|
B||---------------8-------------||---1-1-1-1-1-1-1-1-1-1-1-1-1-1-1-1-|
G||-----------5-6---------------||*----------------------------------|
D||---------5-------------------||*----------------------------------|
A||-------4---------------------||-----------------------------------|
E||--0--3-----------------------||---------------------------1-------|


  S S S S S S S S S S S S S S S S    S S S S S S S S S S S S S S S S  
--3-3-3-3-3-3-3-3-3-3-3-3-3-3-3-3-|--4-4-4-4-4-4-4-4-4-4-4-4-4-4-4-4-|
--0-0-0-0-0-0-0-0-0-0-0-0-0-0-0-0-|--1-1-1-1-1-1-1-1-1-1-1-1-1-1-1-1-|
----------------------------------|----------------------------------|
----------------------------------|----------------------------------|
----------------------------------|----------------------------------|
--3-------------------------------|--------------------------1-------|


                                1.

  S S S S S S S S S S S S S E.     H        Q    Q     
--3-3-3-3-3-3-3-3-3-3-3-3-3-3---|---------------------|
--0-0-0-0-0-0-0-0-0-0-0-0-0-0---|---------------------|
--------------------------------|--1------------------|
--------------------------------|-----------3---------|
--------------------------------|----------------3----|
--3-----------------------------|----------------1----|


  Q    Q    H           Q    Q    Q    Q       H        H           
---------------------|----------------------|---------------------||
---------------------|-----------------1----|---------------------||
---------------------|----------------------|--1--------0--------*||
--0----3-------------|------------3---------|--------------------*||
---------------------|-------3--------------|---------------------||
--3------------------|-----------------1----|--3------------------||


2.

  ^             ^       ^                                           
  H        Q    Q       Q    Q    H           Q    Q    Q     Q     
--4--------1---------|---------------------|------------------8----|
--1-------------1----|--3----6-------------|--L---------6-----9----|
--1-------------1----|--4------------------|-------5---------10----|
----------------3----|--5------------------|-----------------------|
---------------------|---------------------|------------------8----|
----------------1----|--3------------------|-----------------------|


            ^                                         
   H        H           S S S S S S S S S S S S Q     
---------------------|--1-1-1-1-1-1-1-1-1-1-1-1-1----|
---9--------8--------|--1-1-1-1-1-1-1-1-1-1-1-1------|
------------7--------|-------------------------------|
------------9--------|--------------------------3----|
--10-----------------|-------------------------------|
---------------------|-------------------------------|


                                        ^       ^    ^    ^    ^     
  Q    Q    Q    Q       Q    Q    Q    Q       Q    Q    Q    Q     
--3--------------1----|--3--------------1----|--3----4----2----3----|
----------------------|-----------------1----|--3----4----2----3----|
----------------------|-----------------2----|--4----5----3----4----|
--5----3----5----3----|--5----3----5----3----|--5----6----4----5----|
----------------------|-----------------3----|--5----6----4----5----|
-------1----3---------|-------1----3----1----|--3----4----2----3----|


  H.           Q       Q    S S S S S S S S S S E   
--L-----------------|--3----1----------------------|
--L-----------------|---------3-0------------------|
--L-----------------|-------------1-0--------------|
--L-----------------|-----------------3-0----------|
--L-----------------|---------------------2--------|
--L-----------------|-----------------------4-3-1--|


  S  S  S S  S S S S S S S S  S S  S  S  
-------------------8---8----------------|
---------------8-----8-----8------------|
----------8------8-------8------8-------|
----10------10---------------10------10-|
-------10-------------------------10----|
--8-------------------------------------|


  S S S S S S S S S S S S S S S S    S S S S S S S S S S S S S S S S  
----------------2---2-------------|----------------1---1-------------|
------------2-----2-----2---------|------------1-----1-----1---------|
--------2-----2-------2-----2-----|--------1-----1-------1-----1-----|
----4-----4---------------4-----4-|----3-----3---------------3-----3-|
------4-----------------------4---|------3-----------------------3---|
--2-------------------------------|--1-------------------------------|


  S S S S S S S S S S S S S S S S  
----------------3---3-------------|
------------3-----3-----3---------|
--------4-----4-------4-----5-----|
----5-----5---------------5-----5-|
------5-----------------------5---|
--3-------------------------------|



    S  S  S S  S S S S S S S S  S S  S  S  
|--------------------8---8----------------|
|----------------8-----8-----8------------|
|*----------8------8-------8------8-------|
|*----10------10---------------10------10-|
|--------10-------------------------10----|
|---8-------------------------------------|


  S S S S S S S S S S S S S S S S    S S S S S S S S S S S S S S S S  
----------------2---2-------------|----------------1---1-------------|
------------2-----2-----2---------|------------1-----1-----1---------|
--------2-----2-------2-----2-----|--------1-----1-------1-----1-----|
----4-----4---------------4-----4-|----3-----3---------------3-----3-|
------4-----------------------4---|------3-----------------------3---|
--2-------------------------------|--1-------------------------------|


                                  
                                  1.

  S S S S S S S S S S S S S S S S    Q    Q    Q    Q     
----------------3---3-------------|----------------------|
------------3-----3-----3---------|--4---------1---------|
--------4-----4-------4-----5-----|-----------------0----|
----5-----5---------------5-----5-|--5---------1---------|
------5-----------------------5---|--3----3----3----3----|
--3-------------------------------|----------------------|


  Q    Q    Q    Q       Q    Q    Q    Q       Q    Q    Q    Q       
----------------------|-----------------3----|-----------------------||
----------------------|------------1---------|--4---------3----------||
-------5--------------|-------1----0----0----|----------------------*||
--4----4--------------|----------------------|--3---------5---------*||
--3-------------------|----------------------|-----------------------||
--2----2----2----2----|--1----1----1----1----|--3----3----3----3-----||


2.

  E  E  E  E  E  E  E  E     E  E  E  E  E  E  E  E   
--------------------------|--------------------------|
--4-----------1-----------|--------------------------|
--5-----------------0-----|--------5-----------------|
--5-----------1-----------|--4-----4-----------------|
--3--3--3--3--3--3--3--3--|--3-----------------------|
--------------------------|--2--2--2--2--2--2--2--2--|


  E  E  E  E  E  E  E  E     E  E  E  E  E  E  E  E   
--------------------3-----|--------------------------|
--------------1-----------|--4-----------3-----------|
--------1-----0-----0-----|--------------------------|
--------------------------|--3-----------5-----------|
--------------------------|--------------------------|
--1--1--1--1--1--1--1--1--|--3--3--3--3--3--3--3--3--|


  E  E  E  E  E  E  Q       E  E  E  E  E   E   E  E   
--------------3-----8----|--------7--8--9---L--10--L--|
--------------------9----|--9-----------8-------------|
--------5----------------|--7-----------7-------------|
--------5----------------|--0--0--0--0--0---0---0--0--|
-------------------------|----------------------------|
--4--4--4--4--4--4-------|----------------------------|


  E  E  E  E  E  E  E  E     Q    E  E  Q    E  E   
--------------------3-----|-------5--6--7----8--L--|
--------------3-----0-----|--6----------4----------|
--------0-----0-----------|------------------------|
--------0-----------------|--5---------------------|
--------------------------|--3----3--3--3----------|
--3--3--3--3--3--3--3--3--|------------------8--8--|


  E  E  E  E  E  E  E  E     E  E  E  E  E  E  E  E   
--------------------------|--------2--3--4--L--5--L--|
--------4-----3-----------|--3-----------------------|
--------2-----------5-----|--------------2-----------|
--------------4-----4-----|--4-----------------------|
--0--0--0--0--0--0--0--0--|--------------------------|
--------------------------|--2--2--2--2--2--2--2--2--|


                                                        ^                  
  E  E  E  E  E  E  E  E      Q.      S S  H            W                  
-----------------4--5--8--|--11------10-8-10--------|---8----------------||
--------3-----1-----3-----|-------------------------|---8----------------||
--------2-----------------|---8------------7--------|---8----------------||
--0--0--0--0--0--0--0--0--|-------------------------|--10----------------||
--------------------------|--10------------8--------|--10----------------||
--------------------------|-------------------------|---8----------------||




Duration Legend
---------------
W - whole
H - half
Q - quarter
E - 8th
S - 16th
. - note dotted


Tablature Legend
----------------
L - tied note

^ - brush up
v - brush down
Login or Register to remove this ad.

5 comments on Castle

Whoa this is actually pretty

Whoa this is actually pretty neat. The first part seems a little challenging to play fast enough though, might take me some practice.

a classical technique would

a classical technique would be perfect for the quick part. :3

Middle section chords

This tab is really wonderful.
The fast arpeggio'd chords in the middle (using the Villa Lobos Etude Pattern, which sounds great there.)

I believe the 2nd chord is a Cdim7 and the 4th chord is a G7. (because I can hear the same high note in the 3rd and 4th chord)

8---8---1---1---
8---10--1---0---
8---8---1---0---
10--10--3---0---
10--9---3---2---
8---8---1---3---

Just trying to help out.
Keep Tabbing, please!

Check out my classical guitar tabs of modern songs, video games and classical piano.
Classical Guitar Transcriptions

Good observation,sounds more

Good observation,sounds more like it in your way :-)
I knew the chords I used weren't exactly right but I couldn't figure better
ones,so I sticked with simple major/minor chords that seemed to work well.
Anyway,play the way you prefer and if you have others observations to do,share them.

Ha! I noticed the V.L. Etude

Ha! I noticed the V.L. Etude pattern as well. Got to try this tab out...