Ads

Underground (Super Mario World 2: Yoshi's Island) Guitar Tab

Submitted: Mar 07, 2009 by auriplane (Last updated: Apr 17, 2009)

5
Average: 5 (2 votes)
Download | Listen
Game: Super Mario World 2: Yoshi's Island
Composer(s): Koji Kondo
Style: 2 or more instruments, Transcription
Series: Mario

This song is also called Crystal Caverns

AutoScroll: Slow | Medium | Fast
                  Yoshi's Island - Underground GUITAR TAB
                            Song by Koji Kondo

                  Tabbed by auriplane ([email protected])
                              On Mar 7, 2009

I also made a bass tab for this, which you can find on GameTabs.  This
tab contains everything else (except percussion), which is basically
the wind instruments, and tinkly bells.

First, here are the wind parts.  The top staff is the melody, and the
bottom staff is the harmony.


                                Wind Parts
    Intro

e |--5-------------|
B |----6---6-5-----|
G |-----7----------|
D |------7---------|
A |----------------|
E |----------------|
  |                |
e |--1-------------|
B |----3-----1-----|
G |-----2----------|
D |------3-0-------|
A |----------------|
E |----------------|

    Main song

e |----------------|----------------|----------------|----------------|
B |----------------|----------------|----------------|----------------|
G |--7--------7--5-|L-------------5-|--7--------7--5-|L-------------5-|
D |7-------7-------|------------7---|7-------7-------|------------7---|
A |----------------|----------------|----------------|----------------|
E |----------------|----------------|----------------|----------------|
  |                |                |                |                |
e |----------------|----------------|----------------|----------------|
B |----------------|----------------|----------------|----------------|
G |----------------|----------------|----------------|----------------|
D |3-3-----3--3--2-|L-----------2-2-|3-3-----3--3--2-|L-----------2-2-|
A |----------------|----------------|----------------|----------------|
E |----------------|----------------|----------------|----------------|


e |----------------|----------------|----------------|----------------|
B |6-----5---------|5-----5---------|6-----5---------|5-----5---------|
G |--------7-------|--------7------5|--------7-------|--------7------5|
D |---7------------|---5------------|---7------------|---5------------|
A |----------------|----------------|----------------|----------------|
E |----------------|----------------|----------------|----------------|
  |                |                |                |                |
e |----------------|----------------|----------------|----------------|
D |----------------|----------------|----------------|----------------|
B |----------------|----------------|----------------|----------------|
G |3-3-----3--3--2-|L-----------2-2-|3-3-----3--3--2-|L-----------2-2-|
A |----------------|----------------|----------------|----------------|
E |----------------|----------------|----------------|----------------|


e |----------------|----------------|----------------|----------------|
B |----------------|----------------|----------------|----------------|
G |7---------------|----------------|--7--------7--5-|L-------------5-|
D |----------------|----------------|7-------7-------|------------7---|
A |----------------|----------------|----------------|----------------|
E |----------------|----------------|----------------|----------------|
  |                |                |                |                |
e |----------------|----------------|----------------|----------------|
D |----------------|----------------|----------------|----------------|
B |----------------|----------------|----------------|----------------|
G |3-3-----3--3--2-|L-----------2-2-|3-3-----3--3--2-|L-----------2-2-|
A |----------------|----------------|----------------|----------------|
E |----------------|----------------|----------------|----------------|


e |----------------|-----------12h13|-----------12-13|15----------0h13|
B |--------------5-|L---------------|15------15------|----------------|
G |--7--------7----|----------------|----------------|----------------|
D |8-------8-------|----------------|----------------|----------------|
A |----------------|----------------|----------------|----------------|
E |----------------|----------------|----------------|----------------|
  |                |                |                |                |
e |----------------|----------------|5-------5--5--6-|7-------------7-|
B |----------------|----------------|----------------|----------------|
G |----------------|----------------|----------------|----------------|
D |3-3-----3--3--2-|L-----------2-2-|----------------|----------------|
A |----------------|----------------|----------------|----------------|
E |----------------|----------------|----------------|----------------|


e |-----------12-13|15---------13-12|
B |15------15------|----------------|
G |----------------|----------------|
D |----------------|----------------|
A |----------------|----------------|
E |----------------|----------------|
  |                |                |
e |5-------5--5--6-|7-----------5-3-|
B |----------------|----------------|
G |----------------|----------------|
D |----------------|----------------|
A |----------------|----------------|
E |----------------|----------------|


                               Tinkly Bells

This part plays in the very beginning.  There's three bell thingies,
one on the left speaker, one on the right, and one in the middle.
It's very fast, but the request asked for this, so I transcribed it.

    Left part:

e |15-13-12----13-12-------12-------------------------|
B |---------15-------15-13----15-13-12-15-13-12----15-|
G |---------------------------------------------14----|
D |---------------------------------------------------|
A |---------------------------------------------------|
E |---------------------------------------------------|

    Right part:

e |-12-10-8--12-10-8-----10-8---------10-8------------|
B |-------------------12--------12-10-------12-10-12--|
G |---------------------------------------------------|
D |---------------------------------------------------|
A |---------------------------------------------------|
E |---------------------------------------------------|

    Middle part:

e |---------------------------------------------------|
B |-12-10-------12-10-------12-10-------12-10---------|
G |-------12-10-------12-10-------12-10-------12-10---|
D |---------------------------------------------------|
A |---------------------------------------------------|
E |---------------------------------------------------|


Then, in the main song, this arpeggio repeats the entire time, with 
echoes sounding:

e |---------10-|
B |------10----|
G |-9h12-------|
D |------------|
A |------------|
E |------------|

Egad! :-) 
Login or Register to remove this ad.