Ads

Fortress (Super Mario World 2: Yoshi's Island) Guitar Tab

Submitted: Oct 16, 2011 by JordanVS (Last updated: Aug 21, 2014)

0
Download | Listen
Game: Super Mario World 2: Yoshi's Island
Composer(s): Koji Kondo
Style: 2 or more instruments, Transcription
Series: Mario

This song is also called Castle

AutoScroll: Slow | Medium | Fast
Fortress                                                                    
Castle Theme
Super Mario World 2: Yoshi's Island
Koji Kondo                       
JordanVS



-Tempo : 170


Lead
20/4
                |---3---|                                |---3---|  |---3---|                                                                                   
     E   Q.     E   E   E   E   E  E   E   E   Q    E.   T   T   T  E   E   E  H.            E   E   S  S  E   E   E   E   E   E   E  E   E  E   S  S  E.  E.   
E||-----------------------------------------------------------------------------------------12--15--12---------------------------------------------------------|
B||---------------------------------------11--13----L---14h-16p-14-13--12--13--L-----------------------14-13--11--13--14--13--11-------------------------------|
G||--------------------------------9--12------------------------------------------------------------------------------------------12--9------------------------|
D||-----10------L--11--13--10--11--------------------------------------------------------------------------------------------------------11--8--10-11-10-------|
A||------------------------------------------------------------------------------------------------------------------------------------------------------------|
E||------------------------------------------------------------------------------------------------------------------------------------------------------------|

3/4

|---------------|---------------|---------------|---------------|---------------|---------------|---------------|---------------|
|---------------|---------------|---------------|---------------|---------------|---------------|---------------|---------------|
|---------------|---------------|---------------|---------------|---------------|---------------|---------------|---------------|
|---------------|---------------|---------------|---------------|---------------|---------------|---------------|---------------|
|---------------|---------------|---------------|---------------|---------------|---------------|---------------|---------------|
|---------------|---------------|---------------|---------------|---------------|---------------|---------------|---------------|


     Q    Q    Q       Q     Q    Q        Q.      E   E   E     Q    Q    Q        Q    Q    Q       Q     Q    Q     
|-------------------|------------------|----------------------|-----------------|-------------8----|--7----10---------|
|--------------8----|--7----10---------|--11------13--11--10--|--8--------------|--------9---------|------------------|
|*--------8---------|------------------|----------------------|-------7---------|--10--------------|------------------|
|*--10--------------|------------------|----------------------|-----------------|------------------|------------------|
|-------------------|------------------|----------------------|-----------------|------------------|------------------|
|-------------------|------------------|----------------------|-----------------|------------------|------------------|


   Q.      E   E   E      Q     Q    Q        Q    Q    Q       Q     Q    Q        Q.      E   E   E   
--11------13--11--10--|-------------------|------------------|------------------|----------------------|
----------------------|--13----12---------|-------------8----|--7----10---------|--11------13--11--10--|
----------------------|-------------------|--------8---------|------------------|----------------------|
----------------------|-------------------|--10--------------|------------------|----------------------|
----------------------|-------------------|------------------|------------------|----------------------|
----------------------|-------------------|------------------|------------------|----------------------|


  Q    Q    Q        Q    Q    Q       Q     Q    Q        Q.      E   E   E      Q     Q    Q       Q.     E  E  E   
-----------------|-------------8----|--7----10---------|--11------13--11--10--|-------------------|--8---------------|
--8--------------|--------9---------|------------------|----------------------|--13----12---------|---------9--7--9--|
-------7---------|--10--------------|------------------|----------------------|-------------------|------------------|
-----------------|------------------|------------------|----------------------|-------------------|------------------|
-----------------|------------------|------------------|----------------------|-------------------|------------------|
-----------------|------------------|------------------|----------------------|-------------------|------------------|


  H.              Q.     E  E  E     H.               Q.      E   E   E      H.               Q.      E   E   E   
---------------|--8---------------|---------------|--13------------------|----------------|--16------------------|
--8------------|---------9--7--9--|--8------------|----------15--13--15--|--12------------|----------18--16--18--|
---------------|------------------|---------------|----------------------|----------------|----------------------|
---------------|------------------|---------------|----------------------|----------------|----------------------|
---------------|------------------|---------------|----------------------|----------------|----------------------|
---------------|------------------|---------------|----------------------|----------------|----------------------|


   Q     H           H.                                                                                                
--------19--------|--L------------|-----------|-----------|-----------|---------------|---------------|---------------|
--15--------------|---------------|-----------|-----------|-----------|---------------|---------------|---------------|
------------------|---------------|-----------|-----------|-----------|---------------|---------------|---------------|
------------------|---------------|-----------|-----------|-----------|---------------|---------------|---------------|
------------------|---------------|-----------|-----------|-----------|---------------|---------------|---------------|
------------------|---------------|-----------|-----------|-----------|---------------|---------------|---------------|


                                                                                                  Q    Q     Q     
---------------|---------------|---------------|---------------|---------------|---------------|------------------|
---------------|---------------|---------------|---------------|---------------|---------------|--7----8----11----|
---------------|---------------|---------------|---------------|---------------|---------------|------------------|
---------------|---------------|---------------|---------------|---------------|---------------|------------------|
---------------|---------------|---------------|---------------|---------------|---------------|------------------|
---------------|---------------|---------------|---------------|---------------|---------------|------------------|


   Q    Q     Q        H.              H         Q       H         Q       H        Q       H.            
-------------------|----------------|-----------------|-----------------|-----------9----|--8------------|
--10----9----11----|--10------------|--7--------10----|--9--------------|----------------|---------------|
-------------------|----------------|-----------------|-----------10----|--9-------------|---------------|
-------------------|----------------|-----------------|-----------------|----------------|---------------|
-------------------|----------------|-----------------|-----------------|----------------|---------------|
-------------------|----------------|-----------------|-----------------|----------------|---------------|


  H.              
----------------||
--9-------------||
---------------*||
---------------*||
----------------||
----------------||


Piano/Pizzicato
20/4

              |-3-| |-3-|                                                                                                                                           
     H        S S S S S S S T T T T S S S S E  S E  S E.  S E.  S E.  T S T E  Q    T S T E.  Q    S S. T S S T S X S X S X S X S X S X S. S. T X S. E  T. E  Q     
E||----------------------------------------------------------------------------------------------------------------------------------------------------------------|
B||-----------1-1-1-1-1-1-2---1---2---1---1----1----2-----1-----1-----2---1-1-------2---1-1--------2----1---2---1---1---1---2---1---1---1--2------1-----1-----1----|
G||----------------------------------------------------------------------------------------------------------------------------------------------------------------|
D||----------------------------------------------------------------------------------------------------------------------------------------------------------------|
A||----------------------------------------------------------------------------------------------------------------------------------------------------------------|
E||----------------------------------------------------------------------------------------------------------------------------------------------------------------|

3/4

  Q.     E  E  E     Q.     Q.        Q.     E  E  E     Q.     Q.        Q.     E  E  E     Q.     Q.        Q.     E  E  E   
------------------|----------------|------------------|----------------|------------------|----------------|------------------|
------------------|----------------|------------------|----------------|------------------|----------------|------------------|
---------0-----0--|---------2------|---------3-----3--|---------2------|---------0-----0--|---------2------|---------3-----3--|
------------------|----------------|------------------|----------------|------------------|----------------|------------------|
------------------|----------------|------------------|----------------|------------------|----------------|------------------|
------------------|----------------|------------------|----------------|------------------|----------------|------------------|


  Q.     Q    E                                                                                                             
-----------------||--------|-------|-------|-------|-------|-------|-------|-------|-------|-------|-------|-------|-------|
-----------------||--------|-------|-------|-------|-------|-------|-------|-------|-------|-------|-------|-------|-------|
---------2-------||*-------|-------|-------|-------|-------|-------|-------|-------|-------|-------|-------|-------|-------|
-----------------||*-------|-------|-------|-------|-------|-------|-------|-------|-------|-------|-------|-------|-------|
-----------------||--------|-------|-------|-------|-------|-------|-------|-------|-------|-------|-------|-------|-------|
-----------------||--------|-------|-------|-------|-------|-------|-------|-------|-------|-------|-------|-------|-------|


                          H.              E  E  E  E  E   E     H.              E  E  E  E  E   E     H.            
-------|-------|-------|---------------|-----------------10--|---------------|-----------------10--|---------------|
-------|-------|-------|---------------|-----------8--8------|---------------|-----------8--8------|---------------|
-------|-------|-------|---------------|-----7--7------------|---------------|-----7--7------------|---------------|
-------|-------|-------|---------------|--5------------------|---------------|--5------------------|---------------|
-------|-------|-------|---------------|---------------------|---------------|---------------------|---------------|
-------|-------|-------|---------------|---------------------|---------------|---------------------|---------------|


                                                                              |-----3-----|                                
  E   E   E   E   E   E     H.               E   E   E   E   E   E      Q     Q     Q     Q        E   E   E   E   E   E   
---------------------13--|---------------|----------------------19--|--19----------------------|--------------------------|
-------------12--12------|---------------|--------------18--18------|--------21----18----------|--18--------------15------|
-----10--10--------------|---------------|------16--16--------------|--------------------19----|------19--16--13------16--|
--9----------------------|---------------|--15----------------------|--------------------------|--------------------------|
-------------------------|---------------|--------------------------|--------------------------|--------------------------|
-------------------------|---------------|--------------------------|--------------------------|--------------------------|


   |---3---|   |---3---|                                                                                                       
   E   E   E   E   E   E  S  S S S    S S S S S S S S S S S S    H.                                                            
-----------------------------------|--------------------------|---------------|-------|-------|-------|-------|-------|-------|
----------12--------------9--------|--6-----------------------|---------------|-------|-------|-------|-------|-------|-------|
--13----------13--10--------10-7---|----7-4---7-4-----4-1-----|---------------|-------|-------|-------|-------|-------|-------|
------15--------------12---------9-|--------6-----6-3-----3-0-|---------------|-------|-------|-------|-------|-------|-------|
-----------------------------------|--------------------------|--2------------|-------|-------|-------|-------|-------|-------|
-----------------------------------|--------------------------|---------------|-------|-------|-------|-------|-------|-------|


                   Q     Q     Q        Q     Q     Q        H.               H         Q        H         Q     
-------|-------|--14----15----18----|--17----16----18----|--17------------|--14--------17----|--16--------------|
-------|-------|--------------------|--------------------|----------------|------------------|------------18----|
-------|-------|--------------------|--------------------|----------------|------------------|------------------|
-------|-------|--------------------|--------------------|----------------|------------------|------------------|
-------|-------|--------------------|--------------------|----------------|------------------|------------------|
-------|-------|--------------------|--------------------|----------------|------------------|------------------|


   H         Q        H.               H.              
------------21----|--20------------|-----------------||
--17--------------|----------------|--21-------------||
------------------|----------------|----------------*||
------------------|----------------|----------------*||
------------------|----------------|-----------------||
------------------|----------------|-----------------||



Strings 

20/4      3/4

             Q    E  E  E  E     Q    Q.     E     Q    E  E  E  E     Q    Q.     E     Q    E  E  E  E     Q    Q.     E   
E||-------|-------------------|-----------------|-------------------|-----------------|-------------------|-----------------|
B||-------|-------------------|-----------------|-------------------|-----------------|-------------------|-----------------|
G||-------|-------0-----0-----|-------2---------|-------3-----3-----|-------2---------|-------0-----0-----|-------2---------|
D||-------|-------1-----1-----|-------4---------|-------5-----5-----|-------4---------|-------1-----1-----|-------4---------|
A||-------|-------------------|-----------------|-------------------|-----------------|-------------------|-----------------|
E||-------|-------------------|-----------------|-------------------|-----------------|-------------------|-----------------|


  Q    E  E  E  E     Q    Q.     E       Q    E  E  E  E     Q    Q.     E     Q    E  E  E  E     Q    Q.     E   
-------------------|-----------------||--------------------|-----------------|-------------------|-----------------|
-------------------|-----------------||--------------------|-----------------|-------------------|-----------------|
-------3-----3-----|-------2---------||*-------0-----0-----|-------2---------|-------3-----3-----|-------2---------|
-------5-----5-----|-------4---------||*-------1-----1-----|-------4---------|-------5-----5-----|-------4---------|
-------------------|-----------------||--------------------|-----------------|-------------------|-----------------|
-------------------|-----------------||--------------------|-----------------|-------------------|-----------------|


  Q    E  E  E  E     Q    Q.     E     Q    E  E  E  E     Q    Q.     E     Q    E  E  E  E     Q    Q.     E   
-------------------|-----------------|-------------------|-----------------|-------------------|-----------------|
-------------------|-------3---------|-------4-----4-----|-------6---------|-------------------|-----------------|
-------5-----5-----|-------4---------|-------5-----5-----|-------4---------|-------0-----0-----|-------2---------|
-------6-----6-----|-----------------|-------------------|-----------------|-------1-----1-----|-------4---------|
-------------------|-----------------|-------------------|-----------------|-------------------|-----------------|
-------------------|-----------------|-------------------|-----------------|-------------------|-----------------|


  Q    E  E  E  E     Q    Q.     E     Q    E  E  E  E     Q    Q.     E     Q    E  E  E  E     Q    Q.     E   
-------------------|-----------------|-------------------|-----------------|-------------------|-----------------|
-------------------|-----------------|-------------------|-------3---------|-------4-----4-----|-------6---------|
-------3-----3-----|-------2---------|-------5-----5-----|-------4---------|-------5-----5-----|-------4---------|
-------5-----5-----|-------4---------|-------6-----6-----|-----------------|-------------------|-----------------|
-------------------|-----------------|-------------------|-----------------|-------------------|-----------------|
-------------------|-----------------|-------------------|-----------------|-------------------|-----------------|


  Q    E  E  E  E     Q    Q.     E     Q    E  E  E  E     Q    Q.     E     Q    E  E  E  E     Q    Q.     E   
-------------------|-----------------|-------------------|-----------------|-------------------|-----------------|
-------4-----4-----|-------3---------|-------4-----4-----|-------3---------|-------4-----4-----|-------3---------|
-------5-----5-----|-------4---------|-------5-----5-----|-------4---------|-------5-----5-----|-------4---------|
-------------------|-----------------|-------------------|-----------------|-------------------|-----------------|
-------------------|-----------------|-------------------|-----------------|-------------------|-----------------|
-------------------|-----------------|-------------------|-----------------|-------------------|-----------------|


  Q    E  E  E  E     Q    H           H.                                                                            
-------------------|----------------|---------------|---------------|---------------|---------------|---------------|
-------4-----4-----|-------3--------|--L------------|---------------|---------------|---------------|---------------|
-------5-----5-----|-------4--------|--L------------|---------------|---------------|---------------|---------------|
-------------------|----------------|---------------|---------------|---------------|---------------|---------------|
-------------------|----------------|---------------|---------------|---------------|---------------|---------------|
-------------------|----------------|---------------|---------------|---------------|---------------|---------------|


  Q    E  E  E  E     Q    Q.     E     Q    E  E  E  E     Q    Q.     E     Q    E  E  E  E     Q    Q.     E   
-------------------|-----------------|-------------------|-----------------|-------------------|-----------------|
-------------------|-----------------|-------------------|-----------------|-------------------|-----------------|
-------2-----2-----|-------3---------|-------4-----4-----|-------3---------|-------2-----2-----|-------3---------|
-------1-----1-----|-------2---------|-------3-----3-----|-------2---------|-------1-----1-----|-------2---------|
-------------------|-----------------|-------------------|-----------------|-------------------|-----------------|
-------------------|-----------------|-------------------|-----------------|-------------------|-----------------|


  Q    E  E  E  E     Q    Q.     E     Q    E  E  E  E     Q    Q.     E     Q    E  E  E  E     Q    Q.     E   
-------------------|-----------------|-------------------|-----------------|-------------------|-----------------|
-------------------|-----------------|-------------------|-----------------|-------------------|-----------------|
-------4-----4-----|-------3---------|-------2-----2-----|-------3---------|-------4-----4-----|-------3---------|
-------3-----3-----|-------2---------|-------1-----1-----|-------2---------|-------3-----3-----|-------2---------|
-------------------|-----------------|-------------------|-----------------|-------------------|-----------------|
-------------------|-----------------|-------------------|-----------------|-------------------|-----------------|


  Q    E  E  E  E     Q    Q.     E     Q    E  E  E  E     Q    Q.     E     
-------------------|-----------------|-------------------|------------------||
-------------------|-----------------|-------------------|------------------||
-------2-----2-----|-------3---------|-------4-----4-----|-------3---------*||
-------1-----1-----|-------2---------|-------3-----3-----|-------2---------*||
-------------------|-----------------|-------------------|------------------||
-------------------|-----------------|-------------------|------------------||




Bass Strings

20/4

     W                W                W                W                W                 
G||---------------------------------------------------------------------------------------|
D||---------------------------------------------------------------------------------------|
A||--3----------------L----------------L----------------L----------------L----------------|
E||---------------------------------------------------------------------------------------|

3/4

  H.              H.              H.              H.              H.              H.            
---------------|---------------|---------------|---------------|---------------|---------------|
---------------|---------------|---------------|---------------|---------------|---------------|
--3------------|--5------------|--6------------|--5------------|--3------------|--5------------|
---------------|---------------|---------------|---------------|---------------|---------------|


  H.              H.                H.              H.              H.              H.            
---------------|---------------||----------------|---------------|---------------|---------------|
---------------|---------------||*---------------|---------------|---------------|---------------|
--6------------|--5------------||*--3------------|--5------------|--6------------|--5------------|
---------------|---------------||----------------|---------------|---------------|---------------|


  H.              H.              H.              H.              H.              H.            
---------------|---------------|---------------|---------------|---------------|---------------|
--3------------|---------------|---------------|---------------|---------------|---------------|
---------------|--5------------|--6------------|--5------------|--3------------|--5------------|
---------------|---------------|---------------|---------------|---------------|---------------|


  H.              H.              H.              H.              H.              H.            
---------------|---------------|---------------|---------------|---------------|---------------|
---------------|---------------|--3------------|---------------|---------------|---------------|
--6------------|--5------------|---------------|--5------------|--6------------|--5------------|
---------------|---------------|---------------|---------------|---------------|---------------|


  H.              H.              H.              H.              H.              H.            
---------------|---------------|---------------|---------------|---------------|---------------|
--6------------|--5------------|--6------------|--5------------|--6------------|--5------------|
---------------|---------------|---------------|---------------|---------------|---------------|
---------------|---------------|---------------|---------------|---------------|---------------|


  H.              H.              H.              H.              H.              H.            
---------------|---------------|---------------|---------------|---------------|---------------|
--6------------|--5------------|--L------------|---------------|---------------|---------------|
---------------|---------------|---------------|---------------|---------------|---------------|
---------------|---------------|---------------|---------------|---------------|---------------|


  H.              H.              H.              H.              H.              H.            
---------------|---------------|---------------|---------------|---------------|---------------|
---------------|---------------|--5------------|---------------|--5------------|---------------|
--2------------|--3------------|---------------|--3------------|---------------|--3------------|
---------------|---------------|---------------|---------------|---------------|---------------|


  H.              H.              H.              H.              H.              H.            
---------------|---------------|---------------|---------------|---------------|---------------|
--5------------|---------------|--5------------|---------------|--5------------|---------------|
---------------|--3------------|---------------|--3------------|---------------|--3------------|
---------------|---------------|---------------|---------------|---------------|---------------|


  H.              H.              H.              H.              H.              
---------------|---------------|---------------|---------------|----------------||
--5------------|---------------|--5------------|---------------|--5------------*||
---------------|--3------------|---------------|--3------------|---------------*||
---------------|---------------|---------------|---------------|----------------||


Duration Legend
---------------
W - whole
H - half
Q - quarter
E - 8th
S - 16th
T - 32nd
X - 64th
. - note dotted
|-n-|  - n-tuplets


Tablature Legend
----------------
L - tied note
h - hammer on
p - pull off
^ - brush up
v - brush down
Login or Register to remove this ad.