Crystal Caves (Super Mario World 2: Yoshi's Island) Guitar Tab

Submitted: Apr 17, 2010 by diralark (Last updated: Apr 17, 2010)

4.857145
Average: 4.9 (7 votes)
Download | Listen
Game: Super Mario World 2: Yoshi's Island
Composer(s): Koji Kondo
Style: Arrangement, Fingerstyle
Series: Mario

AutoScroll: Slow | Medium | Fast
          Crystal caves from Super Mario World 2 - Yoshi's Island                                          

      Music by Koji Kondo >> Sequenced by Mark Jansen >> tab by Diralark

Guitar

     Q    E  E  Q    Q       W                     Q    Q    H           Q    E  Q    E  Q     
E||--5--------------------|-------------------||----------------------|-----------------------|
B||--6----6----------6----|--5----------------||--------3-------------|----------3-------1----|
G||-------7--7------------|--5----------------||*--2------------------|--2--------------------|
D||----------7--7----0----|-------------------||*--3----3-------------|--3-------3-------2----|
A||-------------8---------|-------------------||----------------------|-----------------------|
E||-----------------------|-------------------||----------------------|-----------------------|


                v                                                                          
  H.            Q        H        Q    Q       Q    Q    H           Q    E  Q    E  Q     
----------------------|---------------------|---------------------|-----------------------|
--L-------------------|----------------1----|-------3-------------|----------3-------1----|
----------------------|-----------2---------|--2------------------|--2--------------------|
--L-------------------|-----------2----2----|--3----3-------------|--3-------3-------2----|
---------------(3)----|-----------L---------|---------------------|-----------------------|
---------------(0)----|-----------L---------|---------------------|-----------------------|


                v                                                                          
  H.            Q        H        Q    Q       Q    E  Q.     Q       Q.     Q    E  Q     
----------------------|---------------------|--1--------------0----|----------------------|
--L-------------------|----------------1----|----------------------|--3-------------------|
----------------------|-----------2---------|----------2-----------|----------------------|
--L-------------------|-----------2----2----|--3----3--------------|--3------3-------2----|
---------------(3)----|-----------L---------|----------------------|----------------------|
---------------(0)----|-----------L---------|----------------------|----------------------|


  Q    E  Q.     Q       H        Q    E  E     Q    E  Q.     Q       Q.     Q    E  Q     
--0--------------0----|----------------------|--1--------------0----|----------------------|
----------------------|--3----------------1--|----------------------|--3-------------------|
----------0-----------|----------------------|----------2-----------|----------------------|
--2----2--------------|-----------2----2-----|--3----3--------------|--3------3-------2----|
----------------------|----------------------|----------------------|----------------------|
----------------------|----------------------|----------------------|----------------------|


  Q    E  Q.     Q       H        Q    E  E     Q    Q    H           Q    E  Q    E  Q     
--0--------------0----|----------------------|--1------------------|-----------------------|
----------------------|--3----------------1--|---------------------|-----------------------|
----------0-----------|----------------------|---------------------|-----------------------|
--2----2--------------|-----------2----2-----|--3----3-------------|--3-------3-------2----|
----------------------|----------------------|---------------------|-----------------------|
----------------------|----------------------|---------------------|-----------------------|


                v                                                                          
  H.            Q        H        Q    Q       Q    Q    H           Q    E  Q    E  Q     
----------------------|---------------------|---------------------|-----------------------|
--L-------------------|---------------------|-------3-------------|----------3-------1----|
----------------------|---------------------|--2------------------|--2--------------------|
--L-------------------|-----------2----2----|--3----3-------------|--3-------3-------2----|
---------------(3)----|-----------L---------|---------------------|-----------------------|
---------------(0)----|-----------L---------|---------------------|-----------------------|


                v                                                                          
  H.            Q        H        Q    Q       Q    Q    H           Q    E  Q    E  Q     
----------------------|---------------------|---------------------|------------------0----|
--L-------------------|----------------1----|-------3-------------|----------3------------|
----------------------|-----------2---------|--3------------------|--3--------------------|
--L-------------------|-----------2----2----|--3----3-------------|--3-------3-------2----|
---------------(3)----|-----------L---------|---------------------|-----------------------|
---------------(0)----|-----------L---------|---------------------|-----------------------|


  H.            Q        H        Q    E  E     H.           Q       Q    E  Q    E  Q     
--L-------------L-----|----------------0--1--|--------------------|----------0-------1----|
----------------------|----------------------|--3------------L----|--3--------------------|
----------------------|----------------------|--2------------L----|--2-------2------------|
--L-------------------|-----------2----------|--------------------|-----------------------|
----------------------|----------------------|---------------0----|----------L------------|
---------------(0)----|-----------L----0-----|--------------------|-----------------------|


  W                   H        Q    Q       H.           E  E     Q    E  Q    E  Q     
--3----------------|--L--------0----1----|---------------------|----------0-------1----|
--0----------------|--L------------------|--3------------L-----|--3--------------------|
-------------------|---------------------|--2------------L-----|--2-------2------------|
-------------------|---------------------|---------------------|-----------------------|
-------------------|---------------------|---------------------|-----------------------|
--0----------------|-----------0---------|--1------------------|--1-------1-------1----|


  W                   H        Q    Q       Q    Q    H           Q    E  Q    E  Q     
--3----------------|-----------1----0----|---------------------|-----------------------|
--0----------------|---------------------|---------------------|-----------------------|
-------------------|-----------2----0----|---------------------|-----------------------|
-------------------|---------------------|-------0-------------|----------0------------|
-------------------|--0------------------|--0------------------|--0---------------3----|
--3----------------|---------------------|--1----1-------------|--1-------1-------0----|


                v                                                                          
  H.            Q        H        Q    Q       Q    Q    H           Q    E  Q    E  Q     
----------------------|---------------------|---------------------|-----------------------|
---------------(1)----|-----------L---------|---------------------|-----------------------|
----------------------|---------------------|---------------------|-----------------------|
---------------(2)----|-----------L---------|-------0-------------|----------0------------|
--L-------------------|-----------0----3----|--0------------------|--0---------------3----|
--L-------------------|-----------0----0----|--1----1-------------|--1-------1-------0----|


                v                                                                          
  H.            Q        H        Q    Q       Q    E  Q.     Q       Q.     Q    E  Q     
----------------------|---------------------|----------------------|----------------------|
---------------(1)----|-----------L---------|----------------------|----------------------|
----------------------|---------------------|----------------------|----------------------|
---------------(2)----|-----------L---------|--3--------------2----|--0-------------------|
--L-------------------|-----------0----3----|----------0-----------|----------------------|
--L-------------------|-----------0----0----|--1----1--------------|--1------1-------0----|


  Q    E  Q.     Q       H        Q    E  E     Q    E  Q.     Q       Q.     Q    E  Q     
----------------------|----------------------|----------------------|----------------------|
----------------------|----------------------|----------------------|----------------------|
----------------------|----------------------|----------------------|----------------------|
--2--------------2----|--0-------------------|--3--------------2----|--0-------------------|
----------------------|-------------------3--|----------0-----------|----------------------|
--0----0--3-----------|-----------0----0-----|--1----1--------------|--1------1-------0----|


  Q    E  Q.     Q       H        Q    E  E     Q    Q    H           Q    E  Q    E  Q     
----------------------|----------------------|---------------------|-----------------------|
----------------------|----------------------|---------------------|-----------------------|
----------------------|----------------------|---------------------|-----------------------|
--2--------------2----|--0-------------------|--3------------------|-----------------------|
----------------------|-------------------3--|---------------------|-----------------------|
--0----0--3-----------|-----------0----0-----|--1----1-------------|--1-------1-------0----|


  H.            Q        H        Q    Q       Q    Q    H           Q    E  Q    E  Q     
----------------------|---------------------|---------------------|-----------------------|
----------------------|---------------------|---------------------|-----------------------|
----------------------|---------------------|---------------------|-----------------------|
---------------(2)----|-----------L---------|-------0-------------|----------0------------|
----------------------|---------------------|--0------------------|--0---------------3----|
--L-------------------|-----------0----0----|--1----1-------------|--1-------1-------0----|


                v                                                                          
  H.            Q        H        Q    Q       Q    Q    H           Q    E  Q    E  Q     
----------------------|---------------------|---------------------|-----------------------|
---------------(1)----|-----------L---------|---------------------|-----------------------|
----------------------|---------------------|---------------------|-----------------------|
---------------(2)----|-----------L---------|-------0-------------|----------0-------2----|
--L-------------------|-----------0----3----|--1------------------|--1--------------------|
--L-------------------|-----------0----0----|--1----1-------------|--1-------1-------0----|


  H.            Q        H        Q    E  E     H.            Q        Q    E  Q    E  Q     
----------------------|-----------L----0--1--|----------------------|----------0-------1----|
----------------------|----------------------|--3-------------L-----|--3--------------------|
----------------------|----------------------|--2-------------L-----|--2-------2------------|
--L------------(2)----|-----------L----2-----|----------------------|-----------------------|
----------------------|----------------------|----------------------|-----------------------|
--L-------------------|-----------0----------|---------------(1)----|----------L------------|


  W                   H        Q    Q       H.           E  E     Q    E  Q    E  Q     
--3----------------|--L--------0----1----|---------------------|----------0-------1----|
--0----------------|--L------------------|--3------------L-----|--3--------------------|
-------------------|---------------------|--2------------L-----|--2-------2------------|
-------------------|---------------------|---------------------|-----------------------|
-------------------|---------------------|---------------------|-----------------------|
--0----------------|-----------0---------|--1------------------|--1-------1-------1----|


  W                   H        Q    Q     3x  Q    E  E  Q    Q       E   E   Q    H          
--3----------------|-----------1----0-----||-----------------------|------------------------||
--0----------------|----------------------||-----------------------|------------------------||
-------------------|-----------2---------*||--2--------------------|------------------------||
-------------------|---------------------*||--3----3--0-------3----|--2h--3p--2----L--------||
-------------------|--0-------------------||-------5--0--0---------|--3---------------------||
--3----------------|----------------------||-------------1---------|------------------------||


Legend
---------------
W - whole
H - half
Q - quarter
E - 8th
S - 16th
. - note dotted
L - tied note
^ - brush up
v - brush down
Login or Register to remove this ad.

3 comments on Crystal Caves

Very nice.

5

Nothing to complain about. Just a great tab.

Thanks Trickypat :)

Thanks Trickypat :)

Amazing tab!

5

One of my fav on this site, spot on. ^^