Ads

Forest Maze (Super Mario RPG) Guitar Tab

Submitted: Sep 04, 2022 by Omnicide (Last updated: Sep 15, 2022)

5
Average: 5 (2 votes)
Download | Listen
Game: Super Mario RPG
Composer(s): Yoko Shimomura
Style: Arrangement, Fingerstyle
Series: Mario

This song is also called Beware the Forest's Mushrooms

AutoScroll: Slow | Medium | Fast
Forest Maze (Beware the Forest's Mushrooms)
Super Mario RPG
Composed by Yoko Shimomura
Arranged by William Geesdorf


Standard Tuning 
(Capo 4)


Playing instructions: Play to the end of the measure marked Da Segno. Go back to the measure marked "Segno" and play to the end.


   "Segno"
      E  E  E  E  Q    Q       Q    Q    H           Q    E  E  Q    E  E   
E||---------------0----5----|--3----0----2--------|--3----0--2--3----2-----|
B||------0--1--3------------|------------3--------|---------------------3--|
G||*--2---------------------|---------------------|------------------------|
D||*------------------------|------------0--------|------------------------|
A||---0-----------0---------|--0------------------|--3----------3----------|
E||-------------------------|---------------------|------------------------|


  Q    Q    H           E  E  E  E  Q    E  E     Q    E  E  H         
---------------------|-------------------------|----------------------|
--0----1----0--------|-----0--1--3--1----0--1--|--3----1--0-----------|
------------0--------|--2----------------------|-------------2--------|
--0------------------|-------------------------|----------------------|
---------------------|-------------------------|----------------------|
------------3--------|--1-----------1----------|--1----------1--------|


  Q    E  E  Q    E  E     Q    E  E  H             E  E  E  Q    E  E  E   
------------------------|-------------0---------||--5--------5----------5--|
--3----1--0-------0--1--|--3----1--3--0---------||--------5----------5-----|
-------------2----------|----------------------*||-----5----------5--------|
------------------------|----------------------*||-------------------------|
------------------------|-----------------------||-------------------------|
--3----------3----------|--3----------0---------||--5----------------------|


  E  E  E  E  Q    Q       E  E  E  Q    E  E  E     E  E  E  E  Q    Q     
-----------5-------5----|-----------3----------3--|-----------3-------3----|
--8-----8-----6---------|--5-----5----------5-----|--3-----3---------------|
-----5------------------|-----3----------3--------|-----3--------5---------|
------------------------|-------------------------|------------------------|
------------------------|-------------------------|------------------------|
--5---------------------|--3----------------------|--3---------------------|


  W                   E   E  E   E  E   E  E   E     W                 
-------------------|---------3h--5---------3h--5--|-------------------|
-------------------|--2h--5---------2h--5---------|-------------------|
--3----------------|------------------------------|--2----------------|
--5----------------|------------------------------|--2----------------|
--0----------------|--0---------------------------|--0----------------|
-------------------|------------------------------|-------------------|


  E   E  E   E  E   E  E  E     E  E  E  E  Q    Q       Q    Q    H         
---------3h--5---------------|------------------------|---------------------|
--2h--5----------------------|-------------------3----|--1---------0--------|
----------------2p--0--------|-----------0--2---------|-------2----0--------|
-----------------------3--2--|--0--2--3-----0---------|--0------------------|
--0--------------------------|------------------------|---------------------|
-----------------------------|------------------------|------------3--------|


  Q    E  E  Q    E  E     Q    Q    H           E  E  E  E  Q    E  E   
------------------------|---------------------|-------------------------|
--1-------0--1----0-----|---------------------|-------------------------|
-------2-------------0--|---------------------|-----------0-------------|
------------------------|--2----3----2--------|--0--2--3-----3----2--3--|
------------------------|------------3--------|--1-----------1----------|
--1----------1----------|--3------------------|-------------------------|


  Q    E  E  H           Q    E  E  Q    E  E     Q    E  E  H         
----------------------|------------------------|----------------------|
----------------------|------------------------|----------------------|
--0-------------------|--0---------------------|--0-------0--2--------|
-------3--2--0--------|-------3--2--0----2--3--|-------3-----2--------|
--1----------1--------|--3----------3----------|--3----------0--------|
----------------------|------------------------|----------------------|


  E  E  E  E  Q    Q       Q    E  E  Q    Q       Q    E  E  Q    Q     
------------------------|--1----0---------------|-----------------------|
-------------------3----|----------3--1---------|--3----1---------------|
-----------0--2---------|------------------2----|----------3--2----0----|
--0--2--3-----0---------|--0--------------------|-----------------------|
------------------------|-------------3---------|--1----------1---------|
------------------------|-----------------------|-----------------------|


  Q    Q    Q    Q       H        Q    Q       Q    E  E  Q    Q     
----------------------|---------------------|--1----0---------------|
----------------------|----------------3----|----------3--1---------|
-----------------0----|--2------------------|------------------2----|
--3----2----3---------|--0--------0---------|--0--------------------|
--0---------0---------|---------------------|-------------3---------|
----------------------|---------------------|-----------------------|


  Q    E  E  Q    Q       Q    Q    Q    Q       H        H         
-----------------------|----------------------|--------------------|
--3----1---------------|----------------------|--------------------|
----------3--2----0----|-----------------0----|-----------2--------|
-----------------------|--3----2----3---------|--4--------0--------|
--1----------1---------|--0---------0---------|--5-----------------|
-----------------------|----------------------|--------------------|

                                                                    Da Segno
  E  E  E  E  Q    Q       E  E  E  E  Q    Q       E  E  E  E  E  E  E  E   
------------------------|------------------------|--------------0-----------|
-------------------3----|-------------------3----|-----------------3--1--0--|
-----------0--2---------|-----------0--2---------|-----------0--------------|
--0--2--4-----0---------|--0--2--4-----0---------|--0--2--4-----2-----------|
------------------------|------------------------|--------------------------|
------------------------|------------------------|--------------------------|


                      ^                  
  W                   W                  
-------------------|-------------------||
-------------------|-------------------||
--2----------------|--L----------------||
--2----------------|--L----------------||
--0----------------|--L----------------||
-------------------|-------------------||




Duration Legend
---------------
W - whole
H - half
Q - quarter
E - 8th
S - 16th
T - 32nd
X - 64th
. - note dotted
|-n-|  - n-tuplets


Tablature Legend
----------------
L - tied note
h - hammer on
p - pull off
^ - brush up
Login or Register to remove this ad.