Ads

Forest Maze (Super Mario RPG) Guitar Tab

Submitted: Jul 28, 2011 by N0Stars

5
Average: 5 (8 votes)
Download | Listen
Game: Super Mario RPG
Composer(s): Yoko Shimomura
Style: Arrangement, Fingerstyle
Series: Mario

AutoScroll: Slow | Medium | Fast
#----------------------------------PLEASE NOTE---------------------------------#
#This file is the author's own work and represents their interpretation of the #
#song. You may only use this file for private study, scholarship, or research. #
#------------------------------------------------------------------------------##

Super Mario RPG - Forest Maze 

Composed by Yoko Shimomura 

Arranged by NorthStar

Gtr I (D A D G B E) - 'Untitled'

  Q=140
 4/4
  Gtr I
  H    H    H    H    Q  Q  Q  Q  Q  Q  Q  Q
|-----------------------------------------------|
|-----------------------------------------------|
|-----------------------------------------------|
|-----------------------------------------------|
|------0---------0-------0-----0-----0-----0----|
|-0---------0---------0-----0-----0-----0-------|


  Q=140
                      |-3-|
  E E E E Q  Q  Q  Q  S S S +E  Q Q  E E Q  E E Q  Q  E E E E E E
|-----------------------------------------------------------------|
|------------3--1-----------------1----0-1--0---------------------|
|-------0-2--------2--4-5-4-(4)------2--------0-------------------|
|-0-2-3---------3---------------0---------------2--3--2-3-2---0-2-|
|-----0------0-----0-----------------3------3------0--------3-----|
|-0-------0-----3-----5-----------3------3------2-----2-------0---|


  E E Q  E E Q  E E Q  Q  Q  E E Q  E E Q  E E E E E E
|--------------------------------------------------0-5----|
|------------------------------------------------2--------|
|---0--------0------------0-------------0----0-2----------|
|-3---3--2-3----3-2-0--------3-2-0--2-3----3--------------|
|-0------0------0------0-----3------3------3---0----------|
|-----0------0------0-----5------5------5----------2------|


                      |-3-|
  E E E E Q   Q Q  Q  S S S +E  Q  Q  E E Q  E E Q  Q  E E E E
|---0-1-3-5--10-8--5--7-8-7-(7)----8--5-7-8--7---0--1--0-1-0-----|
|-3--------------------------------------------8-------------1---|
|-----2-------7----7--0---------7-----5------5------2------2-----|
|---------0--------------------------------------2-----2---------|
|---------------8------------------8------8----------------------|
|-0--------------------------------------------------------------|


  E E E E Q  E E Q  E E Q  Q  Q  E E Q  E E Q E E E E E E
|---0-1-3-1--0-1-3--1-0-------3-------------3---3-5----------|
|-3---------------------3--------6-5-3--5-6---6---2----------|
|-----2------2------2------2-----5------5-----5---2----------|
|-0-------0------0------0-----5------5------5-------2--------|
|-----------------------------------------------------4-0----|
|------------------------------------------------------------|


  E E E E E E E E E E E E E E E E E E E E E E E E E E E E E E E E
|--------------------------------------------------------------------|
|-3------------------------------------------------------------------|
|-------2-------2-5-----2-3-----2-2-----2-------2-0-----2-------2----|
|-----3-------3-------3-------3-------3-------3-------3---3---3------|
|---0-------0-------0-------0-------0-------0-------0-------0--------|
|-0-------0-------0-------0-------0-------0-------0-------0----------|


  E E E E E E E E E E E E E E E E E E E E E E E E E E E E  E  E E E
|-----------------------------------------2-------5-------10-----------|
|---------------------------------3------------------------------------|
|-2-----2-------2-------2-------2-2-----2-------2-------2--7-----------|
|-1---1-------1-------1-------1---0---0-------0-------0----7-10-8-7----|
|---0-------0-------0-------0-------0-------0-------0-----------0------|
|-0-------0-------0-------0-------0-------0-------0--------0-----------|


                      |-3-|
  E E E E Q  Q  Q  Q  S S S +E  Q  Q  E E Q  E E Q Q E E E E
|------------3--1-----------------------------------------------|
|-------1-3--------3--5-6-5-(5)----6------6---------------------|
|---2-3---------3---------------------7-9----9-5-2-3-2----------|
|-5---0------0-----3------------5------------------2------------|
|---------------1-----3---------------8------8---0---0-1-0------|
|-5-------5------------------------8------8----------------3----|


  E E E E Q  E E Q  E E Q Q  Q  E E Q  E E Q  E E E E E E
|------------------------------------------------------------|
|-------1--------------------1-------------------------------|
|-0-2-3---3--2-3-5--3-2-0-------3-2-0--2-3-5--3-5-2----------|
|-----0------0---5--0-----0-------------------5---0----------|
|----------------------------3------3------3--------3-1-0----|
|-5-------5------5------5-------5------5---------------------|


  E E E E Q  Q  Q  E E Q  Q  Q  E E Q  Q  Q  Q  Q  Q
|------------3--6--5---------3--1-----------------------|
|-------1-3----------8-6----------4-3--1-----------1----|
|---2-3-------------------7---------------3--2--3-------|
|-5---0------0-----0------0-----------------------------|
|-------------------------------1------1-----0-----0----|
|-5-------5-----8------8-----1------1-----0-----0-------|


  E E E E Q  Q  Q  E E Q Q  Q  E E Q Q  E E E E E E E E
|------------3--6--5-3-1----3--1---------------------------|
|-------1-3--------------3-------4-3-1----------------1----|
|---2-3---------0------2----3--------3--3-2-0-2-3-2-3------|
|-5---0------0-----0-----0---------------------------------|
|----------------------1-------1-----1------0-------0------|
|-5-------5-----8-----------1------1----0-------0----------|


  E E E E Q  Q  E E E E Q  Q  E E E E Q  Q  Q  Q  E E E E W
|------------3-------------3-------------3--------------------|
|-0-------3-------------3-------------3-----------------------|
|-0-2-4-5-------0-2-4-5-------0-2-4-5-------------2-0---------|
|-----0------0------0------0------0------0-----2------3-2-0---|
|-------------------------------------------0-----0---0---0---|
|-5-------5-----5-------5-----5-------5-------------------0---|


Duration Legend
---------------
W - whole; H - half; Q - quarter; E - 8th; S - 16th; T - 32nd; X - 64th; a - acciaccatura
+ - note tied to previous; . - note dotted; .. - note double dotted
Uncapitalized letters represent notes that are staccato (1/2 duration)
Irregular groupings are notated above the duration line
Duration letters will always appear directly above the note/fret number it represents the
duration for.  Duration letters with no fret number below them represent rests.  Multi-
bar rests are notated in the form Wxn, where n is the number of bars to rest for.  Low
melody durations appear below the staff

Tablature Legend
----------------
 h   - hammer-on
 p   - pull-off
 b   - bend
 pb  - pre-bend
 r   - bend release (if no number after the r, then release immediately)
 /\  - slide into or out of (from/to "nowhere")
 s   - legato slide
 S   - shift slide
  - natural harmonic
[n]  - artificial harmonic
n(n) - tapped harmonic
 ~   - vibrato
 tr  - trill
 T   - tap
 TP  - trem. picking
 PM  - palm muting
\n/  - tremolo bar dip; n = amount to dip
 \n  - tremolo bar down
 n/  - tremolo bar up
/n\  - tremolo bar inverted dip
 =   - hold bend; also acts as connecting device for hammers/pulls
 <>  - volume swell (louder/softer)
 x   - on rhythm slash represents muted slash
 o   - on rhythm slash represents single note slash

Misc Legend
-----------
 |  - bar
||  - double bar
||o - repeat start
o|| - repeat end
*|  - double bar (ending)
 :  - bar (freetime)
 $  - Segno
 &  - Coda
Tempo markers -  = BPM(8/16=s8/s16), where s8 = swing 8ths, s16 = swing 16ths


***************************************************************************************
* Generated using Power Tab Editor by Brad Larsen - http://powertab.guitarnetwork.org *
***************************************************************************************
Login or Register to remove this ad.

4 comments on Forest Maze

great arrangement. good job.

5

great arrangement. good job.

+1

+1

I m working on it, I want

5

I m working on it, I want play it decently coz it's nice. sorry for double post, but I can't vote in an answer :/

I appreciate the five stars.

I appreciate the five stars. This arrangement wasn't as fun to play as I had hoped because of strange finger postions, but I think it does sound good worked up.