Ads

Fight Against Monsters (Super Mario RPG) Guitar Tab

Submitted: Jan 21, 2013 by JordanVS

5
Average: 5 (3 votes)
Download | Listen
Game: Super Mario RPG
Composer(s): Yoko Shimomura
Style: Arrangement, Fingerstyle
Series: Mario

AutoScroll: Slow | Medium | Fast
Fight With Monsters!                               
Fight Theme
Super Mario RPG
Yoko Shimomura
JordanVS



*Tune "A" string up to "B" 

It's not really necessary to tune like that but it does makes things easier ;)



     H.           Q          Q    E.  E  E  S E  E     Q    E.  E  E  S E  E   
E||---------------------||--------------------0-----|-------------------0-----|
B||---------------------||------------0--0--0-2--4--|-----------0--0--0-2--4--|
G||---------------------||*--1----2---1--1--1----4--|--1----2---1--1--1----4--|
D||---------------------||*--2----4-----------------|--2----4-----------------|
B||---------------------||---------------0----------|--------------0----------|
E||---------------7\----||---0----------------------|--0----------------------|


  Q    E.  E  E  S E  E     Q    E.  E  E  S E  E     Q    E.  E  E  S E  E   
-------------------0-----|-------------------0-----|--0----------------------|
-----------0--0--0-2--4--|-----------0--0--0-2--4--|--0----4---2--0--0-2--4--|
--1----2---1--1--1----4--|--1----2---1--1--1----4--|-------4---2--1--1-2--4--|
--2----4-----------------|--2----4-----------------|-------------------------|
--------------0----------|--------------0----------|--------------0----------|
--0----------------------|--0----------------------|--0----------------------|


  E  E  E  E  E  E  E  E     Q    E.  E  E  S E  E     E  E  E  E  E  E  E  E   
--0-----------------------|--0----------------------|--0-----------------------|
--0--4--2--0--------------|--0----4---2--0--0-2--4--|--0--4--2--0--------------|
--------2--1-----2--1-----|-------4---2--1--1-2--4--|--------2--1-----2--1-----|
-----------------------4--|-------------------------|-----------------------4--|
--------------0-----------|--------------0----------|--------------0-----------|
--0-----------------------|--0----------------------|--0-----------------------|


  Q    E.  E  E  S E  E     Q    E.  E  E  S E  E     Q    E.  E  E  S E  E   
-------------------0-----|-------------------0-----|-------------------0-----|
-----------0--0--0-2--4--|-----------0--0--0-2--4--|-----------0--0--0-2--4--|
--1----2---1--1--1----4--|--1----2---1--1--1----4--|--1----2---1--1--1----4--|
--2----4-----------------|--2----4-----------------|--2----4-----------------|
--------------0----------|--------------0----------|--------------0----------|
--0----------------------|--0----------------------|--0----------------------|


                         1.
  Q    E.  E  E  S E  E      Q     E   S E  E  S E   E   
-------------------0-----|--12----11--11-9--7--7-9--11--|
-----------0--0--0-2--4--|------------------------------|
--1----2---1--1--1----4--|------------------------------|
--2----4-----------------|------------------------------|
--------------0----------|------------------0-----------|
--0----------------------|---0--------------------------|


   E   E  E  E  E  E  E   E      Q     E   S E  E  S E   E   
--12--11--9--7---------------|--12----11--11-9--7--7-9--11--|
-----------------------------|------------------------------|
-----------------------------|------------------------------|
-----------------------------|------------------------------|
----------------0--0---------|------------------0-----------|
---0------------------9--11--|---0--------------------------|


                             2.
  E  E   E   E  E  E  E  E       Q    E  S E  E  S E  E   
--7--9--11--12---------------||--0-----------------------|
-----------------------------||-------4--4-2--0--0-2--4--|
-------------------2--1-----*||--------------------------|
-------------------4--2--4--*||--------------------------|
----------------0--------4---||---------------0----------|
--0--------------------------||--0-----------------------|


  E  E  E  E  E  E  E  E     Q    E  S E  E  S E  E     E  E  E  E  H          
--0-----------------------|--0-----------------------|-----------0--L--------||
-----4--2--0-----0--2--4--|-------4--4-2--0--0-2--4--|--0--2--4--------------||
--------------------------|--------------------------|-----------------------||
--------------------------|--------------------------|-----------------------||
--------------0-----------|---------------0----------|-----------------------||
--0-----------------------|--0-----------------------|--0--------------------||




Duration Legend
---------------
W - whole
H - half
Q - quarter
E - 8th
S - 16th
. - note dotted



Tablature Legend
----------------
L - tied note
\ -  slide into from above or out of downwards
Login or Register to remove this ad.

1 comment on Fight Against Monsters

Have this game on virtual

5

Have this game on virtual console but never got around to playing it. Love the tab though, great job!