World 1 - Birabuto (Super Mario Land) Guitar Tab

Submitted: Mar 29, 2011 by Kabukibear

5
Average: 5 (10 votes)
Download | Listen
Game: Super Mario Land
Composer(s): Hirokazu Tanaka
Style: Arrangement, Fingerstyle, Natural harmonics
Series: Mario

AutoScroll: Slow | Medium | Fast
World 1 - Birabuto                                
~Super Mario Land~
Composed by: Hirokazu Tanaka
Arranged by: Justin Lincoln

16th notes are swung

     E  E  S S E  S E.  Q         E  E  S S S S E  E  E  S S  
E||--------------------------||---0-----------0--------------|
B||--8--7--6-5-L-------------||---------3-1-L------------1-3-|
G||--9--8--7-5-L----0--------||*-----0------0------1-----1---|
D||--------------------------||*-----------------------------|
A||--------------------------||---3-----3-------3-----3------|
E||---------------------3----||------------------------------|


  E  E  E  E  E  E  E  E     E  E  E  E  E  S S E  E   
--0--0--------0--1--3--5--|---------------------------|
--------3--1--------------|-----1--1--------1-1----1--|
-----2-----2-----3-----3--|-----2-----2--0--0------0--|
--------------------------|-----------3---------------|
--3-----3-----3-----0-----|---------------------------|
--------------------------|--1-----1-----0------0-----|


                   NH   NH                                   
  E  E  E  E  E    E    E  E     E  E  S S S S E  E  E  S S  
------------------------------|--0-----------0--------------|
-----------0-----<>7--<>7-----|--------3-1-L------------1-3-|
-----0--2--------<>5--<>5-----|-----0------0------1-----1---|
--3--2--3--4------------------|-----------------------------|
--5---------------------------|--3-----3-------3-----3------|
------------------------------|-----------------------------|


  E  E  E  E  E  E  E  S S    E  E  E  E  E  S S E  E   
--0--0--------5--3--8--0---|--------------0------------|
--------3--1-------------3-|-----1--1--3-----1-1----1--|
-----2-----2-----3-----3---|-----2-----2-----0------0--|
---------------------------|---------------------------|
--3-----3-----3-----0------|---------------------------|
---------------------------|--1-----1-----0------0-----|


                  NH                                           
  E  E  E  E  S   S E  E  E     E   E   E   E  E   S S E   E   
--1--0-----------------------|--------------8--7--------------|
--------1--3----<>7-L--------|-----10--12------------8-L------|
----------------<>5-L--0-----|-----------------7--------------|
--0--2--3--4-----------4-----|-----10------10-----10------10--|
-----------------------------|--8-------8------7-------7------|
-----------------------------|--------------------------------|


  E  E  S S E  E  E  E  E     E   E   E   E  E   S S E   E   
---------------------------|--------------8--7--------------|
--6-----8-6----5--6--7--8--|-----10--12------------8-L------|
---------------5--7--8--9--|-----------------7--------------|
-----7------7--------------|-----10------10-----10------10--|
--5-----5------3--5--6--7--|--8-------8------7-------7------|
---------------------------|--------------------------------|


   E   E   E  E  S S E  E  E       E  E  S S S S E  E  E  S S  
--11--10---L--8----------------||--0-----------0--------------|
-------------------------------||--------3-1-L------------1-3-|
-------8------8--0-0----------*||-----0------0------1-----1---|
---6-------6---------3--2--0--*||-----------------------------|
-------------------------------||--3-----3-------3-----3------|
-------------------------------||-----------------------------|


  E  E  E  E  E  E  E  E     E  E  E  E  E  S S E  E     E  E  E  E  Q    Q     
--0--0--------0--1--3--5--|---------------------------|--1--0------------------|
--------3--1--------------|-----1--1--------1-1----1--|--------3--1-------1----|
-----2-----2-----3-----3--|-----2-----2--0--0------0--|-------------------0----|
--------------------------|-----------3---------------|--0--2--3--2-------2----|
--3-----3-----3-----0-----|---------------------------|-------------------3----|
--------------------------|--1-----1-----0------0-----|------------------------|


  W                  
-------------------||
--L----------------||
--L----------------||
--L----------------||
--L----------------||
-------------------||




Duration Legend
---------------
W - whole
H - half
Q - quarter
E - 8th
S - 16th
T - 32nd
X - 64th
. - note dotted
|-n-|  - n-tuplets


Tablature Legend
----------------
L - tied note
NH - natural harmonic
Login or Register to remove this ad.

3 comments on World 1 - Birabuto

Really nice job

5

Really nice job Kabuki
Looking forward to hear the others

What do you mean by "16th

What do you mean by "16th notes are swung"?

More cash, although the

5

More cash, although the harmonic dissonant part sounds a little off to me. I guess it's the best option available with standard tuning harmonics. When I come back to this one I'll listen to the ost and see what I think the real notes are, cause they don't sound right imo.

Or maybe Auri will see this and get curious herself. ;-)