Easton Kingdom (Super Mario Land) Guitar Tab

Submitted: Feb 18, 2010 by LTRobson

0
Download | Listen
Game: Super Mario Land
Composer(s): Hirokazu Tanaka
Style: Alternate picking, Transcription
Series: Mario

AutoScroll: Slow | Medium | Fast
 Super Mario Land - Easton Kingdom (Game Boy)
 Tabbed by LTRobson 18/02/10

 Standard tuning

 Original pitch seems to be slightly shaper than G.
 And this tune is apparently in Super Smash Bros. Brawl.

 ---------------------------------------------
 -8----7--4h7p4/3-----------------------------
 ------------------------0--1--3-1-3-0--------
 ---------------------------------------------
 ---------------------------------------------
 ---------------------------------------------

 ---------------------------------------------------
 -8----7--4h7p4/3-----------------------------------
 ------------------------0--1--3-5-3h5p3/1p0--------
 ---------------------------------------------------
 ---------------------------------------------------
 ---------------------------------------------------

 ---------------------------------------------
 -8----7--4h7p4/3-----------------------------
 ------------------------0--1--3-1-3-0--------
 ---------------------------------------------
 ---------------------------------------------
 ---------------------------------------------

 ---------------------------------------------------
 -8----7--4h7p4/3-----------------------------------
 ------------------------0--1--3-5-3h5p3/1p0--------
 ---------------------------------------------------
 ---------------------------------------------------
 ---------------------------------------------------

 ----------------------------------------------
 -------------------6--------4----6p4/3--------
 -1------------5-------------------------------
 ----------------------------------------------
 ----------------------------------------------
 ----------------------------------------------
Login or Register to remove this ad.