Invincibility (SongeLeReveur Version) (Super Mario Land 2) Guitar Tab

Submitted: Sep 11, 2010 by ForestMarth

0
Download | Listen
Game: Super Mario Land 2
Composer(s): Kazumi Totaka
Style: Arrangement, Transcription
Series: Mario

Click here for a video example.

AutoScroll: Slow | Medium | Fast
                                Invincibility

Composed by : Kazumi Totaka

Arranged by : SongeLeReveur

Tabbed by : ForestMarth

Platform : GameBoy



Guitar



     S S S S S S S S S S S S S S S S    S S S S S S S S S S S S S S S S  
E||--8---8---------8---8-------------|--8---8---------8---8-------------|
B||----------6---6---------6-6---6---|----------6---6---------6-6---6---|
G||----------------------------------|----------------------------------|
D||----------------------------------|----------------------------------|
A||----------------------------------|----------------------------------|
E||----------------------------------|----------------------------------|


  S S S S S S S S S S S S S S S S    S S S S S S S S S S S S S S S S  
--8---8---------8---8-------------|--8---8---------8---8-------------|
----------6---6---------6-6---6---|----------6---6---------6-6---6---|
----------------------------------|----------------------------------|
----------------------------------|----------------------------------|
----------------------------------|----------------------------------|
----------------------------------|----------------------------------|


  S S S S S S S S S S S S S S S S     S S  S S S S S  S S  S S S S S S S  
--8---8---------9---9-------------|--10---10---------11---11-------------|
----------6---6---------7-7---7---|------------8---8-----------9-9---9---|
----------------------------------|--------------------------------------|
----------------------------------|--------------------------------------|
----------------------------------|--------------------------------------|
----------------------------------|--------------------------------------|


   S S  S S  S S  S  S S  S S  S  S S  S S    S S S S S S S S E.   S  S E.    
--12---12-----------13---13----------------|--------6-------------11-11-----||
------------10---10-----------11-11---11---|--6-5-6-----3---4-----11-11-----||
-------------------------------------------|----------------------12-12-----||
-------------------------------------------|--------------------------------||
-------------------------------------------|--------------------------------||
-------------------------------------------|--------------------------------||




Duration Legend
---------------
W - whole
H - half
Q - quarter
E - 8th
S - 16th
T - 32nd
X - 64th
. - note dotted
Login or Register to remove this ad.