Ads

Gusty Garden Galaxy (Super Mario Galaxy) Guitar Tab

Submitted: Apr 13, 2014 by JordanVS

4.875
Average: 4.9 (8 votes)
Download | Listen
Game: Super Mario Galaxy
Composer(s): Koji Kondo, Mahito Yokota
Style: Arrangement, Fingerstyle
Series: Mario

This song is also called Wind Garden

AutoScroll: Slow | Medium | Fast
Gusty Garden Galaxy                                         
Wind Garden
Super Mario Galaxy
Mahito Yokota
JordanVS

*Half Step Down(D# - G# - C# - F# - A# - D#)
-4/4
-Tempo : 152
 

           |---3---|                    |--3--|  |----3----|                                
      Q    E   E   E  Q    Q       Q    E  E  E  Q    Q    Q       E  E  E  E  E  E  E  E   
D#||----------------------------|----------------3----2----0----|--------------------------|
A#||----------------------------|----------0--1-----------------|--3--------3--------------|
F#||------------------2---------|-------2-----------------------|--2--------2--------------|
C#||-------0h--2p--0------------|-------------------------------|--0--0--0--0--0--0--0--0--|
G#||--1--------------------1----|--3-------------3----3----3----|--------------------------|
D#||----------------------------|-------------------------------|--------------------------|


                    |-3| |3|                                                         
  E  E  E  E  E  E  E  S S E     E  E  E  E  E  E  E  E     E  E  E  E  E  E  E  E   
-----------------------3------|--------------------------|-----------------3--------|
--4--------4--------4------4--|--6--------6--------------|--4--------4-----4--------|
--3--------3------------------|--7--------7--------------|--5--------5--------------|
--0--0--0--0--0--0--0----0----|--0--0--0--0--0--0--0--0--|--0--0--0--0--0--0--0--0--|
------------------------------|--------------------------|--------------------------|
------------------------------|--------------------------|--------------------------|


  E  E  E  E  E  E  E  E     E  E  E  E  E  E  E  E     E  E  E  E  E  E  E  E   
--------------------0-----|--------------------------|--------------------------|
--3-----------L--2-----3--|--------------------------|--------------------------|
--2-----------L-----------|--2-----------L-----0--2--|--2--------0--L-----------|
--0--0--0--0--0--0--0--0--|--4-----------L--4--------|--0-----------------------|
--------------------------|--------------------------|--------------------------|
--------------------------|--2--2--2--2--2--2--2--2--|--3--3--3--3--3--3--3--3--|


  E  E  E  E  E  E  E  E     E  E  E  E  E  E  E  E     E  E  E  E  E  E  E  S T  T  
--------------------------|--0-----------L-----2--0--|------------------------------|
--------------------------|-----------------4--------|--3--------2-----0-----2-0h-2-|
--L-----------------------|--------------------------|--2--------2------------------|
--------------------------|--2--2--2--2--2--2--2--2--|------------------------------|
--------------------------|--------------------------|--0--0--0--0--0--0--0--0------|
--3--3--3--3--3--3--2--2--|--------------------------|------------------------------|


  E  E  E  E  E  E  E  E     E  E  E  E  E  E  S S  S  S    E  E  E  E  E  E  E  E   
--------------------------|----------------------0h-2h-3-|--5-----------L--4--7--5--|
--0-----------------------|--------------------3---------|--5-----------L-----------|
-----------2--L-----------|--L-----------L---------------|--------------------------|
--0--0--0--0--0--0--0--0--|------------------------------|--------------------------|
--------------------------|--4--4--4--4--4--4------------|--3--3--3--3--3--3--3--3--|
--------------------------|------------------------------|--------------------------|


  E  E  E  E  E  E  E  E     E  E  E  E  E  E  E  E     E  E  E  E  E  E  E  E   
--3--------2--L-----------|--3-----------L--2--5--3--|--2--------0--L-----------|
--4--------4--L-----------|--5-----------L-----------|--3-----------------------|
--------------------------|--------------------------|--------------------------|
-----------------------1--|--2--2--2--2--2--2--2--2--|--------------------------|
--2--2--2--2--2--2--4-----|--------------------------|--------------------------|
--------------------------|--------------------------|--3--3--3--3--3--3--3--3--|


  E  E  E  E  E  E  E  S T  T     E  E  E  E  E  E  E  E     E  E  E  E  E  E  E  E   
--2-----------L--1--3--2-0h-2h-|--0--------------2-----0--|--------------------------|
-------------------------------|-----------4--------------|--3--------2--L-----------|
--2-----------L----------------|--------------------------|--2--------2--L-----------|
-------------------------------|--------------------------|--------------------------|
--0--0--0--0--0--0--0--0-------|--------------------------|--0--0--0--0--0--0--0--0--|
-------------------------------|--4--4--4--4--4--4--4--4--|--------------------------|


                    |--3-|  |--3-|                                                        
  E  E  E  E  E  E  S S  S  S S  S    E  E  E  E  E  E  E  E     E  E  E  E  E  E  E  E   
-----------------------------------|--------------------0-----|--------------------------|
--3--------5------------------0h-2-|--3-----------L--2-----3--|--------------------------|
--3--------5----------1h-2h-3------|--2-----------L-----------|--2-----------L-----0--2--|
--------------------4--------------|--0--0--0--0--0--0--0--0--|--4-----------L--4--------|
--1--1--1--3--3--------------------|--------------------------|--5--5--5--5--5--5--5--5--|
-----------------------------------|--------------------------|--------------------------|


  E  E  E  E  E  E  E  E     E  E  E  E  E  E  E  E     E  E  E  E  E  E  E  E   
--------------------------|--------------------------|--0-----------L-----2--0--|
--------------------------|--------------------------|-----------------4--------|
--2--------1--L-----------|--L-----------------------|--3-----------L-----------|
--0--0--0--0--0--0--0--0--|--0--0--0--0--0--0--0--0--|--0--0--0--0--0--0--0--0--|
--------------------------|--------------------------|--------------------------|
--------------------------|--------------------------|--------------------------|


  E  E  E  E  E  E  E  S T  T    E  E  E  E  E  E  E  E     E  E  E  E  E  E  S S  S  S  
------------------------------|--------------------------|----------------------0h-2h-3-|
--3--------1------------------|--------------------------|--------------------3---------|
-----------------3-----5-3h-5-|--3--------2--L-----------|--L---------------------------|
--0--0--0--0--0--0--0--0------|--0--0--0--0--0--0--0--0--|------------------------------|
------------------------------|--------------------------|--4--4--4--4--4--4------------|
------------------------------|--------------------------|------------------------------|


  E  E  E  E  E  E  E  E     E  E  E  E  E  E  E  E     E  E  E  E  E  E  E  E   
--5-----------L--4--7--5--|--3--------2--L-----------|--3-----------L--2--5--3--|
--5-----------L-----------|--4--------4--L-----------|--5-----------L-----------|
--------------------------|--------------------------|--------------------------|
--------------------------|-----------------------1--|--2--2--2--2--2--2--2--2--|
--3--3--3--3--3--3--3--3--|--2--2--2--2--2--2--4-----|--------------------------|
--------------------------|--------------------------|--------------------------|


  E  E  E  E  E  E  E  E     E  E  E  E  E  E  E  S T  T     E  E  E  E  E  E  E  E   
--2--------0--L-----------|--2-----------L--0--3--2-0h-2h-|--0-----------------------|
--3-----------------------|-------------------------------|-----------------1-----3--|
--------------------------|--2-----------L----------------|--0--------3-----------2--|
--------------------------|-------------------------------|-----------------------0--|
--------------------------|--0--0--0--0--0--0--0--0-------|--0--0--0--------0--0-----|
--3--3--3--3--3--3--3--3--|-------------------------------|-----------3--3-----------|


  E  E  E  E  E  E  E  E     E  E  E  E  E  E  E.  S    E  E  E  E  E  E  E  E   
--------------------5--6--|--L--5-----5--------------|--------------------------|
--L-----------7--8--------|--------8-----------------|--8-----------------------|
--L-----------------------|--------------------7---7-|--8-----------------------|
--0--0--0--0--0--0--0--0--|--0--0--0--0--0--0--L-----|--------------------------|
--------------------------|--------------------------|--6--6--6--6--6--6--6--6--|
--------------------------|--------------------------|--------------------------|


                                                 ^                                          
     |3|  |-3|       |3|  |-3|                                                              
  E  S E  E  S E  E  S E  E  S E     S  S  E  E  E  E  E  E  E     E  E  E  E  E  E  E.  S  
------------------6----8-----6----|--6h-8p-6-----5--L-----------|--L-----------L-----------|
--L----------8--------------------|--7-----L-----7--L-----------|--L-----------L-----------|
--L----8--------------------------|--------------7--L-----------|--L-----------L-----7---7-|
----------------------------------|--0-----0--0--0--0--0--0--0--|--0--0--0--0--0--0--L-----|
--6--6----6----6--6--6----6----6--|-----------------------------|--------------------------|
----------------------------------|-----------------------------|--------------------------|


                                                                            ^               
                                |3|  |-3|       |3|  |-3|                                   
  E  E  E  E  E  E  E  E     E  S E  E  S E  E  S E  E  S E     S  S  E  E  E  E  E  E  E   
--------------------------|------------------6----8-----6----|--6h-8p-6-----5--L-----------|
--8-----------------------|--L----------8--------------------|--7-----L-----7--L-----------|
--8-----------------------|--L----8--------------------------|--------------7--L-----------|
--------------------------|----------------------------------|--0-----0--0--0--0--0--0--0--|
--6--6--6--6--6--6--6--6--|--6--6----6----6--6--6----6----6--|-----------------------------|
--------------------------|----------------------------------|-----------------------------|


                                                               |--|  |-3-|       |--|  |-3-|     
  E  E  E  E  E  E   E.   S     E  E  E  E  E  E  E   E     E  S  E  E   S E  E  S  E  E   S E   
--L-----------L-------------|--10-----------L-----8------|--8-----------------------------------|
--L-----------L-----10---10-|------------------------11--|-------10-----------------------------|
--L-----------L-------------|--10-----------L------------|--------------10----L----10-----10----|
--0--0--0--0--0--0---L------|----------------------------|--------------------------------------|
----------------------------|---8--8--8--8--8--8--8---8--|--8--8-----8-----8--8--8-----8-----8--|
----------------------------|----------------------------|--------------------------------------|


   E   E   E   E   E   E   E   E      E   E   E   E   E   E   E.   S    E  E  E  S S E  E  E  E   
----------------------------------|----------------------------------|---------------------------|
--11---------------L------10------|--10------------------------------|--8------------3-----------|
--12---------------L----------12--|--------------10---L------10---10-|--------0----0-------------|
--------------------------12------|----------------------------------|---------------------------|
--10--10--10--10--10--10--10--10--|--10--10--10--10--10--10---L------|---------------------------|
----------------------------------|----------------------------------|--0--0--0--0---0--0--0--0--|


     |3|  |-3|       |3|  |-3|                                     |3|  |-3|                 
  E  S E  E  S E  E  S E  E  S E     E  E  E  E  E  E  E  E     E  S E  E  S E  E  E  E  E   
----------------------------------|--1-----------------------|--3----------L----------0-----|
--L---------------0----------3----|--------------------3-----|--1----------L----1-----1-----|
-------------0----0----0----------|--3-----------------3-----|-------------0----------------|
-------0---------------0-----0----|--0--0--0--0--0--0--0--0--|-------2----------------------|
----------------------------------|--------------------------|--3--3----3----3--3--3--3--3--|
--0--0----0----0--0--0----0----0--|--------------------------|------------------------------|


  E  E  E  E  E  E  E  E     E  E  E  E  E  E  E  E     E  E  E  E  E  E  E  E   
--0-----------------------|--0-----------------------|--2--------0--L-----------|
-----------3--L-----------|-----------3--L-----------|--3--------0--L-----------|
--------------------2-----|--------------------2-----|--------------------------|
--0--0--0--0--0--0--0--0--|--------------------------|--------------------------|
--------------------------|--------------------------|--------------------------|
--------------------------|--2--2--2--2--2--2--2--2--|--3--3--3--3--3--3--3--3--|


  E  E  E  E  E  E  E  E     E  E  E  E  E  E  E  E     E  E  E  E  E  E  E  E   
--------0-----2-----3-----|--5-----------L--5--7--2--|--L-----------------2--3--|
--------------------------|--7-----------L--------4--|--L--------------5-----5--|
--------0-----------------|--------------------------|--------------------------|
--------------------------|--4--4--4--4--4--4--4-----|--------------------------|
--------------------------|-----------------------2--|--2--2--2--2--2--2--2--3--|
--3--3--3--3--3--3--3--3--|--------------------------|--------------------------|


  E  E  E  E  E  E  E  E     E  E  E  E  E  E  Q       E  E  E  E  E  E  E  E   
--L--------------5--3--2--|--L-----2--0-------------|--0-----------------------|
--L-----------------------|-----3-------------------|-----------3--L-----------|
-----------------------0--|--L-----------------2----|--2--------2--L-----2-----|
--------------------------|--------------------2----|--0--0--0--0--0--0--------|
--3--3--3--3--3--3--3-----|-----------0--0--0--0----|--------------------4--4--|
-----------------------3--|--3--3--3----------------|--------------------------|


  E  E  E  E  E  E  E  E     E  E  E  E  E  E  E  E     E  E  E  E  E  E  E  E   
--0-----------------------|--2--------0--L-----------|--------0-----2-----3-----|
--0--------3--L-----------|--3--------0--L-----------|--------------------0-----|
-----------4--L-----2-----|--------------------------|--------0-----2-----------|
--------------------2-----|--------------------------|--------------------------|
--2--2--2--2--2--2--0--0--|--------------------------|--------------------------|
--------------------------|--3--3--3--3--3--3--3--3--|--3--3--3--3--3--3--3--3--|


  E  E  E  E  E  E  E  E     E  E  E   E  E  E  E  E     E  E  E  E  E  E   E   E   
--5--------------5--7--8--|--L-----7------------------|----------------------------|
--7--------------------7--|--L--------10-----7-----8--|--L--------------8--10--11--|
--------------------------|--------8---------------9--|--L-------------------------|
--4--4--4--4--4--4--4-----|---------------------------|----------------------------|
--------------------------|---------------------------|-------------------------0--|
-----------------------7--|--7--7--7---7--7--7--7--8--|--8--8--8--8--8--8---8------|


                           ^                                                                   
                                                                                    |-3| |3|   
  E  E   E   E  E   E  E   E      E   E   E   E   E   E  E  E     E  E  E  E  E  E  E  S S E   
--------------------8-----10--|---L----------------------------|-----------------------3------|
--L-----10--11-----10-----10--|---L----------------------------|--4--------4--------4------4--|
--------11--12------------11--|---L----------------------------|--3--------3------------------|
--------------------------12--|---L----------12----------0--0--|--0--0--0--0--0--0--0----0----|
--0--0---0---0--0---0--0--12--|---L----------12----------------|------------------------------|
--------------------------10--|--10--10--10--10--10--10--------|------------------------------|


                                               |--3--|                        
  E  E  E  E  E  E  E  E     E  E  E  E  E  E  E  E  E     W                  
--------------------------|--------------------3--2--0--|-------------------||
--6--------6--------------|--4--------4-----------------|--3----------------||
--7--------7--------------|--5--------5-----------------|--2----------------||
--0--0--0--0--0--0--0--0--|--0--0--0--0--0--0--0--------|--0----------------||
--------------------------|-----------------------------|-------------------||
--------------------------|-----------------------------|-------------------||




Duration Legend
---------------
W - whole
H - half
Q - quarter
E - 8th
S - 16th
T - 32nd
. - note dotted
|-n-|  - n-tuplets


Tablature Legend
----------------
L - tied note
h - hammer on
p - pull off
^ - brush up
v - brush down
Login or Register to remove this ad.

1 comment on Gusty Garden Galaxy

Beautiful

5

This one's flawless, I really look forward to your future tabs man.