Ads

Comet Observatory (Super Mario Galaxy) Guitar Tab

Submitted: Jun 24, 2009 by conqueran (Last updated: Sep 07, 2009)

4.96154
Average: 5 (26 votes)
Download | Listen
Game: Super Mario Galaxy
Composer(s): Koji Kondo, Mahito Yokota
Style: Arrangement, Fingerstyle, Transcription
Series: Mario

Click here for a video example.

AutoScroll: Slow | Medium | Fast
Super Mario Galaxy - Comet Observatory

Composed by: Koji Kondo

Played by vicio89
http://www.youtube.com/watch?v=7OC-7USc79A

Transcribed and Tabbed by: conqueran

Thanks to SalemJake for this excellent request. This is surprisingly
easy to play in comparison to lonlonjp's compositions.

Notes are measured from the capo. So '0' means '2' and '1' means '3' etc.
Hold notes for as long as possible for the full effect.

Gtr I (Standard)~Capo 2~ It is also possible to play this in a lower key with standard tuning
if you don't have a capo.

 6/4
  Gtr I
  Q  E E Q  Q  E E Q    Q  E E Q  Q  E E Q
|---------------------|---------------------|
|---------------------|---------------------|
|----0---0-----0---0--|----0---0-----0---0--|
|-0---------2---------|-3---------2---------|
|---------------------|---------------------|
|-3----3----3----3----|-3----3----3----3----|


  Q  E E Q  Q  E E Q    Q  E E Q   W.
|---------------------|------------------|
|---------------------|------------------|
|----0---0-----0---0--|----0---0--^0-----|
|-0---------2---------|-3---------^3-----|
|---------------------|-----------^2-----|
|-3----3----3----3----|-3----3----^3-----|


    E E Q  E E Q  Q  E E   Q  E Q  E H    Q
||------0----------------|-------------------|
||o----------0-3--1------|-0-------1---------|
||----0----------------1-|----2--------------|
||--2--------------------|-----------0-------|
||o-3------3---3-----3---|-------------------|
||-----------------------|-1----1----1----0--|


  Q  Q  E E Q  Q  E E   Q  E E Q  H.
|---------------------|-----------------|
|-1--0------1--0------|-----------------|
|---------------------|-2------2--0-----|
|---------3---------3-|----1------2-----|
|---------------------|-3----3----3-----|
|-3-----3---3-----3---|-----------------|


  E E Q  E E Q  Q  Q    E E Q  E E Q  Q  Q
|-----0---------------|-----3------3--1-----|
|----------0-3--1-----|---1------1-1--------|
|---0-----------------|-2----------1--------|
|-2-------------------|---------------------|
|-3------3---3--------|---------------------|
|------------------0--|-1------1---1-----1--|


  Q  Q  E E Q  E E E E   Q  E E E E H    Q
|-1--0------0----------|-----------------------||
|--------------3-----0-|-1----------1---------o||
|---------0--------0---|----------0------------||
|----------------------|--------2--------------||
|-----------2----------|------3---------------o||
|-3-----3--------3-----|-3--3------------3-----||


  Q  E E E E Q  E E Q     Q.   E E E Q.   E Q
|----------------------|-----------------------|
|-------------------0--|-----------------------|
|-0----------0---------|-^0----------0---------|
|--------0------0------|-^2----2---2-2----2----|
|----3-----------------|-^3--------------------|
|-1----1---1------1----|-^3------3---3------3--|


  Q  E E E E Q  E E Q     Q  Q  Q  Q  E E E E
|----------------------|-------------------------|
|-------------------0--|--------3--0-------------|
|-0----------0---------|-^0----------------------|
|--------0------0------|-^2-------------2--------|
|----3-----------------|-^3--0--------3-----3----|
|-1----1---1------1----|-^3-----3--3------3------|


  Q  E E E E Q  E E Q     Q  E E Q   Q  E E Q
|----------------------|-----------------------|
|-------------------0--|------------^1---------|
|-0----------0---------|-^0---------^0---------|
|--------0------0------|-^2----2----^2----2----|
|----3-----------------|-^3--3------^0--0------|
|-1----1---1------1----|-^3------3----------0--|


  Q  E E E E Q  E E Q    Q  E E E E H.
|----------------------|-------------------||
|------------0---------|-1----------3-----o||
|-2--------------------|-------------------||
|------3----------3----|------0------------||
|----3-----3----3------|----2-----2-------o||
|-1------1---1------0--|-3------3---3------||


    E E Q  E E Q  Q  E E   Q  E Q  E H    Q
||------0----------------|-------------------|
||o----------0-3--1------|-0-------1---------|
||----0----------------1-|----2--------------|
||--2--------------------|-----------0-------|
||o-3------3---3-----3---|-------------------|
||-----------------------|-1----1----1----0--|


  Q  Q  E E Q  Q  E E   Q  E E Q  H.
|---------------------|-----------------|
|-1--0------1--0------|-----------------|
|---------------------|-2------2--0-----|
|---------3---------3-|----1------2-----|
|---------------------|-3----3----3-----|
|-3-----3---3-----3---|-----------------|


  E E Q  E E Q  Q  Q    E E Q  E E Q  Q  Q
|-----0---------------|-----3------3--1-----|
|----------0-3--1-----|---1------1-1--------|
|---0-----------------|-2----------1--------|
|-2-------------------|---------------------|
|-3------3---3--------|---------------------|
|------------------0--|-1------1---1-----1--|


                         1.
  Q  Q  E E Q  E E E E   Q  E E E E H    Q
|-1--0------0----------|-----------------------||
|--------------3-----0-|-1----------1---------o||
|---------0--------0---|----------0------------||
|----------------------|--------2--------------||
|-----------2----------|------3---------------o||
|-3-----3--------3-----|-3--3------------3-----||



   Q  E E E E E E +H       W
|---------------1-(1)----|-0----|
|-^1----------1----------|-0----|
|-^1--------1------------|-0----|
|-^3------3--------------|-2----|
|-------3----------------|-3----|
|-^1--1------------------|-3----|


Duration Legend
---------------
W - whole; H - half; Q - quarter; E - 8th; S - 16th; T - 32nd; X - 64th; a - acciaccatura
+ - note tied to previous; . - note dotted; .. - note double dotted
Uncapitalized letters represent notes that are staccato (1/2 duration)
Irregular groupings are notated above the duration line
Duration letters will always appear directly above the note/fret number it represents the
duration for.  Duration letters with no fret number below them represent rests.  Multi-
bar rests are notated in the form Wxn, where n is the number of bars to rest for.  Low
melody durations appear below the staff

Tablature Legend
----------------
 h   - hammer-on
 p   - pull-off
 b   - bend
 pb  - pre-bend
 r   - bend release (if no number after the r, then release immediately)
 /\  - slide into or out of (from/to "nowhere")
 s   - legato slide
 S   - shift slide
  - natural harmonic
[n]  - artificial harmonic
n(n) - tapped harmonic
 ~   - vibrato
 tr  - trill
 T   - tap
 TP  - trem. picking
 PM  - palm muting
\n/  - tremolo bar dip; n = amount to dip
 \n  - tremolo bar down
 n/  - tremolo bar up
/n\  - tremolo bar inverted dip
 =   - hold bend; also acts as connecting device for hammers/pulls
 <>  - volume swell (louder/softer)
 x   - on rhythm slash represents muted slash
 o   - on rhythm slash represents single note slash

Misc Legend
-----------
 |  - bar
||  - double bar
||o - repeat start
o|| - repeat end
*|  - double bar (ending)
 :  - bar (freetime)
 $  - Segno
 &  - Coda
Tempo markers -  = BPM(8/16=s8/s16), where s8 = swing 8ths, s16 = swing 16ths
Login or Register to remove this ad.

3 comments on Comet Observatory

a wonderful tab, thank u very

5

a wonderful tab, thank u very much, i enjoy play it

just me?

is it just me, or does the low 3 on the 12th measure sound off? ( the second measure shown here)

  Q  Q  E E Q  E E E E   Q  E E E E H    Q
|-1--0------0----------|-----------------------||
|--------------3------0-|-1----------1---------o||
|---------0---------0---|----------0------------||
|------------------------|--------2--------------||
|-----------2-----------|------3---------------o||
|-3-----3--------3-----|-3--3------------3-----||

Is it a typo? cause this sounds better to me, could be wrong tho

  Q  Q  E E Q  E E E E   Q  E E E E H    Q
|-1--0------0----------|-----------------------||
|--------------3------0-|-1----------1---------o||
|---------0---------0---|----------0------------||
|------------------------|--------2--------------||
|-----------2-----------|-3----3---------------o||
|-3-----3--------3-----|----3------------3-----||

Its been a while since ive

Its been a while since ive been looking over what you said and yea i agree