Ads

Puzzle Plank Galaxy (Super Mario Galaxy 2) Guitar Tab

Submitted: Jan 09, 2014 by N0Stars

5
Average: 5 (4 votes)
Download | Listen
Game: Super Mario Galaxy 2
Composer(s): Koji Kondo, Mahito Yokota, Ryo Nagamatsu
Style: Arrangement, Artificial harmonics, Fingerstyle, Natural harmonics, Percussion
Series: Mario

AutoScroll: Slow | Medium | Fast
Super Mario Galaxy 2 - Puzzle Plank Galaxy Theme

Composed by Koji Kondo, Mahito Yokota, and Ryo Nagamatsu

Arranged for Guitar by N0Stars

Gtr I (D A D G B E) - 'Untitled'

  Gtr I
  E E Q  Q  Q    E E Q  Q  Q    E E Q  Q  Q    E E Q  Q  Q
|--------------|--------------|--------------|--------------|
|--------------|--------------|--------------|--------------|
|--------0--2--|--------0-----|--------0--2--|--------0-----|
|-0-0-4--------|-0-0-4--------|-0-0-4--------|-0-0-4--------|
|--------------|-----------0--|--------------|-----------0--|
|--------------|--------------|--------------|--------------|


                                                         |-3-|
  E E Q  Q  Q    E E Q  Q  Q    E E Q  Q  Q    E E Q  Q  E E E
|-----2-----3--|-----2-----0--|-----2-----3--|-----2------------|
|-----3-----3--|-----3-----2--|-----3-----3--|-----3-------0-2--|
|--------0--2--|--------0-----|--------0--2--|--------0--2------|
|-0-0-4--------|-0-0-4--------|-0-0-4--------|-0-0-4------------|
|--------------|-----------0--|--------------|-----------0------|
|--------------|--------------|--------------|------------------|


  E E Q  Q  Q    E E E E Q  E E   E E E E E E E E   E E E E E E Q
|--------0-----|-2-----5------0-|-2-------0-------|-0-2-0----------|
|-3------------|-----3----------|-----0-3-----0-3-|-------3-0------|
|-----2--0--2--|---------0------|---2-------2-2---|-----------2----|
|-0-0-4--------|-0-0-4----------|-0-0-4---5-------|-0-0-4---5------|
|--------------|------------0---|-----------------|-------------0--|
|--------------|----------------|-----------------|----------------|


                                 |-3-|
  E E Q  Q  Q    E E E E E a S S E E E   E E E E E E E E   E E E E Q  Q
|--------0-----|-2-----5---5-7-5-3-2-0-|-2-------0-2-0---|-0-----0------|
|-3------------|-----3-----------------|-----0-3-------3-|-----0---3----|
|-----2--0--2--|---------0-------0-----|---2-----0---2---|---2-----0--2-|
|-0-0-4--------|-0-0-4-----------------|-0-0-4-----------|-0-0-4--------|
|--------------|-----------------------|-----------------|------------0-|
|--------------|-----------------------|-----------------|--------------|


  E E Q  Q  Q    E E E E E a S S E E   E E E E E E E E   E E E E E E Q
|--------0-----|-2-----5---5-7-5-3-0-|-2-------0-------|-0-2-0----------|
|-3------0-----|-3---3---------------|-3---0-3-0---0-3-|-------3-0------|
|-2---2--0--2--|-2-------0-----------|---2-----0-2-2---|---------0-2----|
|-0-0-4--------|---0-4---------------|---0-4-----------|---0-4----------|
|--------------|-----------------0---|-----------------|-------------0--|
|-0------5-----|-0-------------------|-0-------5-------|-0-------5------|


  a E E Q  Q  Q    E E E E Q  Q    E E E E E E Q    E E Q  Q  Q
|----------0-----|-2-----5-------|-7-5-3-2-0------|---------------|
|-2h3------0-----|-3---3---------|---------0-3-0--|-3-------------|
|---2---2--0--2--|-2-------0-----|---------0------|-2------0------|
|---0-0-4--------|---0-4---------|---0-4-------2--|-0-0-4---------|
|----------------|------------0--|----------------|-----------0---|
|---0------5-----|-0-------------|-0-------5------|-0------5------|


  E E Q  Q  Q    E E Q  Q  Q    E E Q  Q  Q    E E Q  Q  Q
|-----2-----3--|-----2-----0--|-----2-----3--|-----2-----0--|
|-----3-----3--|-----3-----2--|-----3-----3--|-----3-----2--|
|-----2-----2--|-----2-----2--|-----2-----2--|-----2-----2--|
|--------------|--------------|--------------|--------------|
|-----------x--|-----------x--|-----------x--|-----------x--|
|-0-0-x--5-----|-0-0-x--5-----|-0-0-x--5-----|-0-0-x--5-----|


  E E Q  Q  Q    E E E E E E E E   E E E E E E E E   E E E E E E E E
|--------0-----|-2-----5---7---3-|-2-------0-------|-0-2-0-----------|
|-3------------|-----3-----------|-----0-3-----0-3-|-------3-0-------|
|-----2-----2--|-----2-----------|---2-------2-----|-----------2-----|
|-----4-----4--|-----------------|-----------------|-----------------|
|-----------x--|-------------x---|-------------x---|-------------x-x-|
|-0-0-x--5-----|-0-0-x---5-------|-0-0-x---5-------|-0-0-x---5-------|


  E E Q  Q  Q    E E E E E E E E   E E E E E E E E   E E E E Q  Q
|--------0-----|-2-----5---7---3-|-2-------0-2-0---|-0-----0-------|
|-3------------|-----3-----------|-----0-3-------3-|-----0---3-----|
|-----2-----2--|-----2-----------|---2-------------|---2--------2--|
|-----4-----4--|-----------------|-----------------|------------2--|
|-----------x--|-------------x---|-------------x---|------------0--|
|-0-0-x--5-----|-0-0-x---5-------|-0-0-x---5-------|-0-0-x---5-----|


  E E Q  Q  Q    E E E E E E E E   E E E E E E E E   E E E E E E E E
|--------0-----|-2-----5---7---3-|-2-------0-------|-0-2-0-----------|
|-3------0-----|-3---3-----------|-3---0-3-0---0-3-|-------3-0-------|
|-2---2--0--2--|-2---2-----------|---2-----0-2-----|-----------2-----|
|-0---4-----4--|-----------------|-----------------|-----------------|
|-----------x--|-------------x---|-------------x---|-------------x-x-|
|-0-0-x--5-----|-0-0-x---5-------|-0-0-x---5-------|-0-0-x---5-------|


  E E Q  Q  Q    E E E E Q  Q    E E E E E E Q    E E Q  Q   Q
|--------0-----|-2-----5-------|-7-5-3-2-0------|----------------|
|-3------0-----|-3---3---------|-----------3-0--|-3--------------|
|-2---2--0--2--|-2---2---------|----------------|-2--------------|
|-0---4-----4--|---------------|----------------|-0--------------|
|-----------x--|------------x--|-------------x--|-----------<0>--|
|-0-0-x--5-----|-0-0-x---5-----|-0-0-x---5------|-0-0-x--5-------|


   E   E   Q    Q    Q      E   E   Q    Q    Q
|------------------------|------------------------|
|------------------------|------------------------|
|--------------<0>--[2]--|--------------<0>-------|
|-<0>-<0>-[4]------------|-<0>-<0>-[4]------------|
|------------------------|-------------------<0>--|
|------------------------|------------------------|


   E   E   Q    Q    Q      E   E   Q    Q    Q
|------------------------|------------------------|
|------------------------|------------------------|
|--------------<0>--[2]--|--------------<0>-------|
|-<0>-<0>-[4]------------|-<0>-<0>-[4]------------|
|------------------------|-------------------<0>--|
|------------------------|------------------------|


   Q   Q   Q   Q     Q   E  E Q  Q
|-10------12------|-14-----17-------|
|-----10------10--|-----15----------|
|----------0------|-----------0-----|
|--0--------------|--0--------------|
|-----------------|--------------0--|
|-----------------|-----------------|


   E  E  E  E  E  E  E  E    E  E  E  E  E  E Q
|-14-------10-12-------10-|-12-14-12-10----------|
|----10-12-------10-12----|-------------12-10----|
|--------------0----------|--------------0-------|
|--0----------------------|--0-------------------|
|-------------------------|-------------------0--|
|-------------------------|----------------------|


   Q   Q   Q   Q     Q   E  E Q  Q
|-10------12------|-14-----17-------|
|-----10------10--|-----15----------|
|----------0------|-----------0-----|
|--0--------------|--0--------------|
|-----------------|--------------0--|
|-----------------|-----------------|


   E  E  E  E  E  E  E  E    E  E  E  E  Q  Q
|-14-------10-12-14-12-10-|-12-------12-10-----|
|----10-12----------------|----10-12-----------|
|--------------0----------|--------------0-----|
|--0----------------------|--0-----------------|
|-------------------------|-----------------0--|
|-------------------------|--------------------|


   Q   Q   Q   Q     Q   E  E Q  Q
|-10------12------|-14-----17-------|
|-----10--12--10--|-----15----------|
|-11-------0------|-14--------0-----|
|--0--------------|--0--------------|
|-----------------|--------------0--|
|-----------------|-----------------|


   E  E  E  E  E  E  E  E    E  E  E  E  E  E Q
|-14-------10-12-------10-|-12-14-12-10----------|
|----10-12-------10-12----|-------------12-10----|
|--------------0----------|--------------0-------|
|--0----------------------|--0-------------------|
|-------------------------|-------------------0--|
|-------------------------|----------------------|


   Q   Q   Q   Q     Q   E  E Q  Q     E  E  E  E  E  E  Q     H      H
|-10------12------|-14-----17-------|-19-17-15-14-12-10-----|-10----[10]----*|
|-----10--12--10--|-----15----------|-------------------12--|--7------------*|
|-11-------0------|-14--------0-----|--------------0--------|--7------------*|
|--0--------------|--0--------------|--0--------------------|--0------------*|
|-----------------|--------------0--|-----------------------|---------------*|
|-----------------|-----------------|-----------------------|--0------------*|


Duration Legend
---------------
W - whole; H - half; Q - quarter; E - 8th; S - 16th; T - 32nd; X - 64th; a - acciaccatura
+ - note tied to previous; . - note dotted; .. - note double dotted
Uncapitalized letters represent notes that are staccato (1/2 duration)
Irregular groupings are notated above the duration line
Duration letters will always appear directly above the note/fret number it represents the
duration for.  Duration letters with no fret number below them represent rests.  Multi-
bar rests are notated in the form Wxn, where n is the number of bars to rest for.  Low
melody durations appear below the staff

Tablature Legend
----------------
 h   - hammer-on
 p   - pull-off
 b   - bend
 pb  - pre-bend
 r   - bend release (if no number after the r, then release immediately)
 /\  - slide into or out of (from/to "nowhere")
 s   - legato slide
 S   - shift slide
  - natural harmonic
[n]  - artificial harmonic
n(n) - tapped harmonic
 ~   - vibrato
 tr  - trill
 T   - tap
 TP  - trem. picking
 PM  - palm muting
\n/  - tremolo bar dip; n = amount to dip
 \n  - tremolo bar down
 n/  - tremolo bar up
/n\  - tremolo bar inverted dip
 =   - hold bend; also acts as connecting device for hammers/pulls
 <>  - volume swell (louder/softer)
 x   - on rhythm slash represents muted slash
 o   - on rhythm slash represents single note slash

Misc Legend
-----------
 |  - bar
||  - double bar
||o - repeat start
o|| - repeat end
*|  - double bar (ending)
 :  - bar (freetime)
 $  - Segno
 &  - Coda
Tempo markers -  = BPM(8/16=s8/s16), where s8 = swing 8ths, s16 = swing 16ths


***************************************************************************************
* Generated using Power Tab Editor by Brad Larsen - http://powertab.guitarnetwork.org *
***************************************************************************************
Login or Register to remove this ad.

2 comments on Puzzle Plank Galaxy

FantasticFlawlessFrolicsome

Fantastic
Flawless
Frolicsome
tab!!!

Five stars*****

Haha, thanks! What a poetic

Haha, thanks! What a poetic compliment.