Ads

Underwater (Super Mario Brothers) Guitar Tab

Submitted: May 09, 2010 by diralark

5
Average: 5 (3 votes)
Download | Listen
Game: Super Mario Brothers
Composer(s): Koji Kondo
Style: Fingerstyle, Transcription
Series: Mario

AutoScroll: Slow | Medium | Fast

Underwater from Super Mario Brothers

Music by Koji Kondo >> Piano score arr. by Kimberly Boman >> tab by Diralark

Guitar - tempo 88 ("autobrush ON")

                                                v        v         
      E  E  E  E  E  E     S S E  E  Q    E     E  E  E  E  E  E   
E||---------------0--1--|--2-2-2--2--2-------|--7--------6--------|
B||------0--2--3--------|---------0--1----3--|--------------------|
G||*--2--1--0-----0--1--|--2-2-2-------------|--------0-----------|
D||*-----------4--------|------0--0--0-------|-----0--------0--4--|
A||---------------------|--------------------|--------------------|
E||---------------------|--------------------|--3--------2--------|


  v            v          v        v           v           v       
  E  E  E  S S S S S S    E  E  E  E  E  E     E  E  E  E  E  S S  
--7------------0-2-3-5-|--7--------6-----8--|--7-----------7------|
-------------3-----0---|--3--------2--------|--3--------------0---|
--------0--------------|--------0-----------|--------0----------7-|
-----0---------0-------|-----0--------0-----|-----0--------0------|
-----------2-----------|--------------------|---------------------|
--3--------------------|--3--------2--------|--3--------7---------|


  V     IV             V          --            -- -]              
  v        v           v                        v        v         
  E  E  E  E  E  E     E  E  E  S S  S S S S    E  E  E  E  E  E   
--5--------4--------|--5---------------------|--5--------------8--|
--------------------|----------------5-7-8-9-|-----------3--------|
--5--------4--------|--5----------7----------|--5-----------------|
--------4-----------|--------------------7---|--------4-----0-----|
-----5--------4--8--|-----5--9--5----9-------|-----5-----------0--|
--5--------4--------|--5---------------------|--5--------2--------|


                           X                          --                        
  v                        v           v              v           v             
  E  E  E  E   E  S  S     E   E   E   E   E   E      E   E   E   E   E   S  S  
--7--------------------|--10----------10----------|--10----------10--12-----10-|
--------------12-------|--12----------10----------|----------------------------|
--0-----0---------0----|--------------------------|--13------------------------|
-----0-----0--------12-|--------------------------|----------------------------|
-----------------------|--10------10--------------|----------11--11------------|
-----------------------|------10------14--10--14--|--12--10--------------10----|


  V                    --    -]                                   
  v        v           v        v              v        v         
  E  E  E  E  E  E     E  E  E  E   E   S S    E  E  E  E  E  E   
--8--------8--------|--8--------8--10-----8-|--7--------0--2--8--|
-----5--------5-----|-----5-----------------|--------0--1--1-----|
--------5--------5--|--5-----5--------------|--0-----------2-----|
-----------6--------|--5------------0--10---|-----0-----0--------|
--0-----------------|-----------9-----------|--------------------|
--------------------|-----------------------|--------------------|


  S S E  S S Q.        
--7-7-7--L-2-3-------||
--3-3-3------0-------||
-----------2--------*||
--0-0-0--L-0--------*||
---------------------||
-------------3-------||

Legend
---------------
W - whole
H - half
Q - quarter
E - 8th
. - note dotted
^ - brush up
v - brush down

Login or Register to remove this ad.

3 comments on Underwater

--7-7-7--L-2-3-------|| -----

--7-7-7--L-2-3-------||
-------------0-------||
--7-7-7----2--------*||
--0-0-0--L-0--------*||
---------------------||
-------------3-------||

Playing the last bit this way is easier imo, but this tab sounds perfect.

Simply awesome

5

Merci beaucoup pour cette "Guitar Tab" !!! =)

Ah indeed Choogly, well done

Ah indeed Choogly, well done ! De rien ForestMarth et j'en ferai d'autre plus tard :) Thanks for yours comments !