Ads

Overworld Theme (Super Mario Brothers) Mandolin Tab

Submitted: Jun 04, 2009 by LoneCentrist (Last updated: Feb 04, 2010)

5
Average: 5 (1 vote)
Download | Listen
Game: Super Mario Brothers
Composer(s): Koji Kondo
Style: Transcription
Series: Mario

AutoScroll: Slow | Medium | Fast
Overworld Theme
Super Mario Bros.
Composed by Koji Kondo
Tabbed by Rob Van
6/3/09

E|-0-0-0---0-3----|
A|-------3--------|
D|--------------5-|
G|----------------|

E|------------------0-3-5-1-3-0-------|
A|-3-----0-2-1-0----------------3-5-2-|
D|---5-2----------5-------------------|
G|------------------------------------|

E|------------------0-3-5-1-3-0-------|
A|-3-----0-2-1-0----------------3-5-2-|
D|---5-2----------5-------------------|
G|------------------------------------|

E|-3-2-1-0-0--------------3-2-1-0-0-8-8-8-|
A|-------------0-3-0-3-5------------------|
D|-----------5----------------------------|
G|----------------------------------------|

E|-3-2-1-0-0----------------------|
A|-------------0-3-0-3-5----6-5-3-|
D|-----------5--------------------|
G|--------------------------------|

E|-3-2-1-0-0--------------3-2-1-0-0-8-8-8-|
A|-------------0-3-0-3-5------------------|
D|-----------5----------------------------|
G|----------------------------------------|

E|-3-2-1-0-0----------------------|
A|-------------0-3-0-3-5----6-5-3-|
D|-----------5--------------------|
G|--------------------------------|

E|-----------0------------------0-|
A|-3-3-3-3-5---3-0----3-3-3-3-5---|
D|-----------------5--------------|
G|--------------------------------|

E|-----------0--------0-0-0---0-3---|
A|-3-3-3-3-5---3-0----------3-------|
D|-----------------5--------------5-|
G|----------------------------------|

E|------------------0-3-5-1-3-0-------|
A|-3-----0-2-1-0----------------3-5-2-|
D|---5-2----------5-------------------|
G|------------------------------------|

E|------------------0-3-5-1-3-0-------|
A|-3-----0-2-1-0----------------3-5-2-|
D|---5-2----------5-------------------|
G|------------------------------------|

E|-0----------1-1------5-5-5-3-1-0-------|
A|---3------0-----0--2-------------3-0---|
D|-----5--6----------------------------5-|
G|---------------------------------------|

E|-0----------1-1------1-1-1-0-----------|
A|---3------0-----0--2---------5-3-------|
D|-----5--6------------------------2-2-0-|
G|---------------------------------------|

E|-0----------1-1------5-5-5-3-1-0-------|
A|---3------0-----0--2-------------3-0---|
D|-----5--6----------------------------5-|
G|---------------------------------------|

E|-0----------1-1------1-1-1-0-----------|
A|---3------0-----0--2---------5-3-------|
D|-----5--6------------------------2-2-0-|
G|---------------------------------------|

E|-----------0------------------0------------0--------0-0-0---0-3-|
A|-3-3-3-3-5---3-0----3-3-3-3-5----3-3-3-3-5---3-0----------3-----|
D|-----------------5-------------------------------5--------------|
G|----------------------------------------------------------------|

E|-0----------1-1------5-5-5-3-1-0-------|
A|---3------0-----0--2-------------3-0---|
D|-----5--6----------------------------5-|
G|---------------------------------------|

E|-0----------1-1------1-1-1-0-----------|
A|---3------0-----0--2---------5-3-------|
D|-----5--6------------------------2-2-0-|
G|---------------------------------------|
Login or Register to remove this ad.