Ads

Overworld (Super Mario Brothers) Guitar Tab

Submitted: Mar 26, 2014 by jlefvert

4.9
Average: 4.9 (10 votes)
Download | Listen
Game: Super Mario Brothers
Composer(s): Koji Kondo
Style: Arrangement, Fingerstyle
Series: Mario

AutoScroll: Slow | Medium | Fast
Super Mario Bros
Koji Kondo 
Arr: Jonas Lefvert 

e|-0-0-0---0-3-----| |----------------------0-3-5--1-3-0--------| 
B|-------1---------| |-1----------0---------1-5-6--3-5-1--1-3-0-| 
G|-----------0---0-| |-0--0-----2-0-3-2---0---------------2-4-0-|X2 
D|-0-0-0-0---------| |----2--2--3---4-3---2---------------------| 
A|-----------------| |-------3----------------------------------| 
E|---------------3-| |------------------------------------------| 
 
e|---3-2-1-----0-------------------3-2-1-----0--8-8-8------3-2-1-----0-------------------------------| 
B|---------4-----------1-----1-3---------4------8-8-8------------4-----------1-----1-3--4-3-1--------| 
G|-----0-----5-----1-2-----2---------0-----5-----------------0-----5-----1-2-----2------5-3-0--------|X2 
D|----------------------------------------------------5-------------------------------------2--5-5---| 
A|-3---------------------3-------3-----------------------3---------------------3----------1-3------3-| 
E|---------------1-----------1-----------------------------------------1-----------1----4------------| 
 
e|------------------------------------------------------------| 
B|-1-1--1-1-3-5-1-------1-1--1-1-3-5-------1-1--1-1-3-5-1-----| 
G|-1----1---3-----2-0---1----1---3---------1----1---3-----2-0-| 
D|------1-----5-2-2----------1-----5------------1-----5-2-2---| 
A|------------3--------------------3---3--------------3-------| 
E|-4----------------3-3-4----------------3-4----------------3-| 
 
e|-0-0-0---0-3-----| |----------------------0-3-5--1-3-0--------| 
B|-------1---------| |-1----------0---------1-5-6--3-5-1--1-3-0-| 
G|-----------0---0-| |-0--0-----2-0-3-2---0---------------2-4-0-|X2 
D|-0-0-0-0---------| |----2--2--3---4-3---2---------------------| 
A|-----------------| |-------3----------------------------------| 
E|---------------3-| |------------------------------------------| 
 
e|-0-----------1-1-------5-5-5-3-1-0----------0------------1-1-------1-1-1-0------------| 
B|---1-----------1-----0---6---5-3---1----------1------------1-----0-0-0-0-1-3-1--------| 
G|-----0---1-2-----2---0---0---0--------2-0-------0---1--2-----2---0---------0-0--------|X2 
D|-----------3---3-3-------------3-----------------------3---3-3---------------2-2--2---| 
A|-3-------3-----------------------3----------3-------3--------------------0-2-3------3-| 
E|-------3---1-----1---3----------------2-3---------3----1-----1---3---3-3--------------| 
 
e|------------------------------------------------------------| |-0-0-0---0-3-----| 
B|-1-1--1-1-3-5-1-------1-1--1-1-3-5-------1-1--1-1-3-5-1-----| |-------1---------| 
G|-1----1---3-----2-0---1----1---3---------1----1---3-----2-0-| |-----------0---0-| 
D|------1-----5-2-2----------1-----5------------1-----5-2-2---| |-0-0-0-0---------| 
A|------------3--------------------3---3--------------3-------| |-----------------| 
E|-4----------------3-3-4----------------3-4----------------3-| |---------------3-| 
 
Game Over 
e|-----------------------------------------| 
B|-1------------0--------------------------| 
G|-0--0-----2------2-------3---------------| 
D|----2--2--3----------6-----6---5---3---5-| 
A|-------3-------------4---------3---------| 
E|----------1------------------------------| 
 
Level Complete 
e|-----------0-3---0---------------4-------------------6---6-6-6-8-| 
B|---------1-------------------1-4-----4-----------3-6-------------| 
G|-------0-------------------1-------------------3---------7-7-7-9-| 
D|-----2-------------------1-------------------3-------------------| 
A|---3-------------------3-------------------5---------------------| 
E|-3-------------------4-------------------6---------------------8-| 
Login or Register to remove this ad.

4 comments on Overworld

Great arrangement!

Great arrangement!

Thank you!

Thank you!

Wow fantastic it looks like

Wow fantastic it looks like the best Mario arrangement ever write ! Bravo !

Thank you very much!

Thank you very much!