Ads

Overworld 1 (Super Mario Brothers 3) Guitar Tab

Submitted: Jan 21, 2010 by LTRobson (Last updated: Jan 21, 2010)

5
Average: 5 (7 votes)
Download | Listen
Game: Super Mario Brothers 3
Composer(s): Koji Kondo
Style: Arrangement, Fingerstyle
Series: Mario

AutoScroll: Slow | Medium | Fast
Super Mario Bros. 3 - Overworld 1 (NES)
Tabbed by LTRobson Jan 2010


Standard tuning
|-------3-1---------------3-
|----3------------------3---
|-4--4--4-2---2-3-4---------
|-5-------------------------
|-------------3-4-5---------
|---------------------------

|--------------------------------------
|--5--4-5---4-5----1------5--4-5-5---3-
|--0--0-0---0-0--2--------0--0-0-0-5---
|----------------3-2---------------5-3-
|--------------------------------------
|--------------------------------------

|--------------------------------------
|--5--4-5---4-5----1------5--4-5-----1-
|--0--0-0---0-0--2--------0--0-0-0-2-0-
|----------------3-2-------------0-2---
|--------------------------------------
|--------------------------------------

|-----------1--------------0-----------------------------0---
|-----1-1-----1------1-1-----1------------3--------1-1-------
|-----2-2------------0-0------------2-2-----2------0-0-----0-
|-3-3------------2-2----------------3-3----------------------
|-------------------------------5-5------------3-3-----------
|------------------------------------------------------------

|-----------1--------------2----------------------3---3-
|-----1-1-----1------1-1-----1--0-0-1-1-2-2-3-3---3---3-
|-----2-2------------2-2--------0-0-2-2-3-3-4-4---------
|-3-3------------4-4----------------------------5-------
|-------------------------------------------------------
|-------------------------------------------------------
Login or Register to remove this ad.

2 comments on Overworld 1

That's a neat little tab. :)

5

That's a neat little tab. :)

Thank you. It's itching for

Thank you. It's itching for some bass.