Ads

Moving Along (Summon Night Twin Age) Guitar Tab

Submitted: Jul 27, 2012 by BluePhoenix

0
Download | Listen
Game: Summon Night Twin Age
Composer(s): Kengo Sakurai
Style: 2 or more instruments, Alternate picking, Transcription
Series: Summon Night

AutoScroll: Slow | Medium | Fast
Moving Forward
Summon Night Twin Age
Composed by Kengo Sakurai
Tab by BluePhoenix


Track 1

E|--------|------------------------------|------------------------------|------------------------------|
B|--------|------------------------------|------------------------------|------------------------------|
G|--------|------------------------------|---------7---5----------------|------------------------------|
D|--------|---------7------------10------|-----7------------9---7-------|---------7------------10------|
A|--------|-----7------------10------5---|-L----------------------------|-----7------------10------5---|
E|--------|-5-----------8----------------|------------------------------|-5-----------8----------------|


E|------------------------------|------------------------------|------------------------------|
B|------------------------------|------------------------------|------------------------------|
G|---------7---5----------------|------------------------------|---------7---5----4-----------|
D|-----7------------9---7---5---|---------7------------10------|-----7----------------7-------|
A|-L----------------------------|-----7------------10------5---|-L----------------------------|
E|------------------------------|-5-----------8----------------|------------------------------|


E|---------------------------|---------------------------------|--------------------------------|
B|---------------------------|---------------------------------|--------------------------------|
G|-------------0----2--------|---------0---2---4---5---4-------|--------------------------------|
D|---------3-----------------|-----------------------------5---|-L----------7------------10-----|
A|-----3---------------------|-----5---------------------------|--------7------------10------5--|
E|-1---------------------3---|-L-------------------------------|----5-----------8---------------|


E|--------------------------------|--------------------------------|--------------------------------|
B|--------------------------------|--------------------------------|--------------------------------|
G|------------7---5---------------|--------------------------------|------------7---5---------------|
D|--------7------------9---7------|------------7------------10-----|--------7------------9---7---5--|
A|---L----------------------------|--------7------------10------5--|----L---------------------------|
E|--------------------------------|----5-----------8---------------|--------------------------------|


E|--------------------------------|--------------------------------|-----------------------------|
B|--------------------------------|--------------------------------|-----------------------------|
G|--------------------------------|------------7---5----4----------|----------------0----2-------|
D|-L----------7------------10-----|--------7----------------7------|------------3----------------|
A|--------7------------10------5--|----L---------------------------|--------3--------------------|
E|----5-----------8---------------|--------------------------------|----1---------------------3--|


E|-----------------------------------|---------------------------|---------------------------|
B|-----------------------------------|---------------------------|---------------------------|
G|------------0---2---4---5---4------|-----------------7----5----|-----------------5----4----|
D|--------------------------------5--|-L-----------7-------------|---------3---5-------------|
A|--------5--------------------------|---------7-----------------|---------------------------|
E|----L------------------------------|-----5---------------------|-----3---------------------|


E|-----------------------------|---------------------------|---------------------------|
B|-----------------------------|---------------------------|---------------------------|
G|-------------------7----5----|---------------------------|-----------------7----5----|
D|---------------7-------------|----------3------------5---|-------------7-------------|
A|-----------7-----------------|------3------------5-------|---------7-----------------|
E|-------5---------------------|-1------------3------------|-----5---------------------|


E|---------------------------|-----------------------------|---------------------------|
B|---------------------------|-----------------------------|---------------------------|
G|-----------------5----4----|-------------------7----5----|---------------------------|
D|---------3---5-------------|---------------7-------------|----------3------------5---|
A|---------------------------|-----------7-----------------|------3------------5-------|
E|-----3---------------------|-------5---------------------|-1------------3------------|


E|-----0------|---------------------------------|-----0------|
B|-----1------|---------------------------------|-----1------|
G|-----2------|---------------------------------|-----2------|
D|-----2------|---------------------------------|-----2------|
A|------------|---------------------------------|------------|
E|------------|---------------------------------|------------|





Track 2

E|----------------------------|-----------------------|----------------------------|
B|----------------------------|-----------------------|----------------------------|
G|-------------------4--5--7--|-5---------4-----------|-------------------4--5--7--|
D|----------------7-----------|---------------7-------|----------------7-----------|
A|----------------------------|-------------------7---|-7--------------------------|
E|----------------------------|-----------------------|----------------------------|


E|-----------------------|----------------------------|-----------------------|---------------------------|
B|-----------------------|----------5-----------------|-----------------------|---------------------------|
G|-5---------4-----------|-------------------4--5--7--|-5---------4-----------|---------------------------|
D|---------------7---5---|--L-------------7-----------|---------------7-------|-----------------------5---|
A|-----------------------|-----7----------------------|-------------------7---|-L-------------5---7-------|
E|-----------------------|----------------------------|-----------------------|---------------------------|


E|------------------------|----------------------|-------------------------|----------------------------|
B|---------------5--------|-------8--------------|-------------------------|----------------------------|
G|--------------------5---|-L--------------4--5--|-7--5---------4----------|----------------------4--5--|
D|-7----------------------|-------------7--------|------------------7------|-------------------7--------|
A|------------------------|----------------------|----------------------7--|-L--------------------------|
E|------------------------|----------------------|-------------------------|----------------------------|


E|-------------------------|--------------------------|-------------------------|-----------------------|
B|-------------------------|-----------5--------------|-------------------------|-----------------------|
G|-7--5---------4----------|--------------------4--5--|-7--5---------4----------|-----------------------|
D|------------------7---5--|-L---------------7--------|------------------7------|--------------------5--|
A|-------------------------|------7-------------------|----------------------7--|-L----------5---7------|
E|-------------------------|--------------------------|-------------------------|-----------------------|


E|--------------------------|----------------------|----5-----------------|-------5-----------------|
B|------------------5-------|-------8-----------5--|-8--------------------|-5--8--------------------|
G|-----------------------5--|-L-----------5--7-----|----------------5--7--|-------------------5--7--|
D|-L--7---------------------|----------------------|----------------------|-------------------------|
A|--------------------------|----------------------|----------------------|-------------------------|
E|--------------------------|----------------------|----------------------|-------------------------|


E|-------5----------10---|-L--8-----7----------------|-------5-----------------|-------5-----------------|
B|-5--8--------8---------|---------------------------|-5--8--------------------|-5--8--------------------|
G|-----------------------|---------------------5--7--|-------------------5--7--|-------------------5--7--|
D|-----------------------|---------------------------|-------------------------|-------------------------|
A|-----------------------|---------------------------|-------------------------|-------------------------|
E|-----------------------|---------------------------|-------------------------|-------------------------|


E|-------5---------------12---|-10-------8-----|-----7------|---------------------------------|
B|-5--8------------8----------|----------------|------------|---------------------------------|
G|----------------------------|----------------|------------|---------------------------------|
D|----------------------------|----------------|------------|---------------------------------|
A|----------------------------|----------------|------------|---------------------------------|
E|----------------------------|----------------|------------|---------------------------------|


E|---------------------------------------------|
B|---------------------------------------------|
G|---------------------------------------------|
D|---------------------------------------------|
A|---------------------------------------------|
E|---------------------------------------------|



Login or Register to remove this ad.