Ads

The Chase - Battle Against Luca (Suikoden 2) Guitar Tab

Submitted: Jan 26, 2013 by Pasto

0
Download | Listen
Game: Suikoden 2
Composer(s): Miki Higashino
Style: Transcription

AutoScroll: Slow | Medium | Fast
Title: The Chase - Battle against Luca
Game: Suikoden II
Composer: Miki Higashino
Tabbed by: Pasto

E|--------|---------------------------------|---------------------------------|
B|--------|---------------------------------|---------------------------------|
G|--------|-1---2---1---2---1---2---1---2---|-1---2---1---2---1---2---1---2---|
D|--------|---------------------------------|---------------------------------|
A|--------|---------------------------------|---------------------------------|
E|--------|---------------------------------|---------------------------------|


E|-----------------------------------|--------|------------------|-------------|-2----------------|
B|-----------------------------------|--------|-------0-----2----|-4-----------|-------4-----2----|
G|-1---2---1---2---1---2---1------0--|-1------|-2----------------|--------1----|------------------|
D|----------------------------/4-----|--------|------------------|-------------|------------------|
A|-----------------------------------|--------|------------------|-------------|------------------|
E|-----------------------------------|--------|------------------|-------------|------------------|


E|--------|------------------|
B|-4------|-2-----------0----|
G|--------|-------2--------1-| X 2
D|--------|------------------|
A|--------|------------------|
E|--------|------------------|

 
E|--------|---------------------------------|---------------------------------|
B|--------|---------------------------------|---------------------------------|
G|--------|-1---2---1---2---1---2---1---2---|-1---2---1---2---1---2---1---2~--| x 2
D|--------|---------------------------------|---------------------------------|
A|--------|---------------------------------|---------------------------------|
E|--------|---------------------------------|---------------------------------|

E|-----------------------------0---|-----2---0---4-------6---4---7---|
B|-------------2-------4---2-------|-4---------------7---------------|
G|-1---4---3-------4---------------|---------------------------------| X 4
D|---------------------------------|---------------------------------|
A|---------------------------------|---------------------------------|
E|---------------------------------|---------------------------------|


E|--------|--------|------7-------6-------9-------|-7-------6-------7-------4-------|
B|--------|--------|------------------------------|---------------------------------|
G|--------|--------|------------------------------|---------------------------------|
D|--------|--------|------------------------------|---------------------------------|
A|--------|--------|------------------------------|---------------------------------|
E|--------|--------|------------------------------|---------------------------------|


E|------7-------6-------9-------|-7-------6-------7-------4-------|-------11---9----12-----|
B|------------------------------|---------------------------------|------------------------|
G|------------------------------|---------------------------------|------------------------|
D|------------------------------|---------------------------------|------------------------|
A|------------------------------|---------------------------------|------------------------|
E|------------------------------|---------------------------------|------------------------|


E|-11-----|-9----11|--7-----|--11----|-9----12|-11---9-|-11---7-|--------|--------|
B|--------|--------|--------|--------|--------|--------|--------|--------|--------|
G|--------|--------|--------|--------|--------|--------|--------|--------|--------|
D|--------|--------|--------|--------|--------|--------|--------|--------|--------|
A|--------|--------|--------|--------|--------|--------|--------|--------|--------|
E|--------|--------|--------|--------|--------|--------|--------|--------|--------|


E|---------------------------------|-----9-------10--9---12--10--14--|
B|---------------------10------12--|-10------12----------------------|
G|-----11--9---12--11------12------|---------------------------------| X 2
D|-12------------------------------|---------------------------------|
A|---------------------------------|---------------------------------|
E|---------------------------------|---------------------------------|

E|--------|-0--2-------7-5-7----10----7-5-7~---|
B|--------|------------------------------------|
G|--------|------------------------------------|
D|--------|------------------------------------|
A|--------|------------------------------------|
E|--------|------------------------------------|


E|--------|--------|------10------9-------12------|-10------9-------10------7-------|
B|--------|--------|------------------------------|---------------------------------|
G|--------|--------|------------------------------|---------------------------------|
D|--------|--------|------------------------------|---------------------------------|
A|--------|--------|------------------------------|---------------------------------|
E|--------|--------|------------------------------|---------------------------------|


E|-----10------9-------12-------|-10------9-------10------7-------|------14---12---15------|
B|------------------------------|---------------------------------|------------------------|
G|------------------------------|---------------------------------|------------------------|
D|------------------------------|---------------------------------|------------------------|
A|------------------------------|---------------------------------|------------------------|
E|------------------------------|---------------------------------|------------------------|



E|-14----12---14---10----|-14---12---15------|-14---12---14---10-|
B|-----------------------|-------------------|-------------------|
G|-----------------------|-------------------|-------------------|
D|-----------------------|-------------------|-------------------|
A|-----------------------|-------------------|-------------------|
E|-----------------------|-------------------|-------------------|
Repeat
Login or Register to remove this ad.