Ads

A Brief Respite (Starwish) Bass Tab

Submitted: Aug 26, 2014 by auriplane

5
Average: 5 (2 votes)
Download | Listen
Game: Starwish
Composer(s): Auriplane
Style: Transcription

AutoScroll: Slow | Medium | Fast
                     RPG Shooter: Starwish - A Brief Respite BASS TAB
                    Composed & Tabbed by Auriplane ([email protected])


This song has swung eighth notes.  In each pair of eighth notes, the first
one is twice as long as the second.

Standard tuning.


        Part A

                     |=3=|                    |=3=|
   E   E E   E E   E E E E  E   E E   E E   E E E E
G |------------------------|------------------2-1---|  \
D |4---4-----4-L---4-2---2-|4---4-----4-L---4-----2-|   \
A |--------------------4---|------------------------|    \
E |------------------------|------------------------|     |
                                                          |
                     |=3=|                                | 2x
   E   E E   E E   E E E E  E   E E   E E   E E   E       |
G |------------------------|----------------------1-|     |
D |4---4-----4-L---4-2---2-|4---------------3-L-----|    /
A |--------------------4---|----4-----4-L-----------|   /
E |------------------------|------------------------|  /

        Part B

   E   E E   E E   E E   E  E   E E   E E   E E   E
G |------------------------|------------------------|
D |4---4-----4-L---4-----4-|2---2-------------------|
A |------------------------|----------2-L---2-----2-|
E |------------------------|------------------------|


   E   E E   E E   E E   E  E   E E   E E   E E   E  E   E E   E E   E E   E
G |------------------------|------------------------|------------------------|
D |4---4-----4-L---2-L---3-|----------2-L---2-----2-|4---4-----4-L---2-L---3-|
A |------------------------|5---5-------------------|------------------------|
E |------------------------|------------------------|------------------------|


   E   E E   E E   E E   E  E   E E   E E   E E   E
G |------------------------|------------------------|
D |4---4-----4-L---4-----4-|2---2-------------------|
A |------------------------|----------2-L---2-----2-|
E |------------------------|------------------------|

                                                                       |=3=|
   E   E E   E E   E E   E  E   E E   E E   E E   E  E   E E   E E   E E E E
G |------------------------|------------------------|------------------------|
D |4---4-----4-L---2-L---3-|----------2-L---2-----2-|4---4-----4-L---4-2---2-|
A |------------------------|5---5-------------------|--------------------4---|
E |------------------------|------------------------|------------------------|

        Repeat back to Part A.

Login or Register to remove this ad.