Ads

Corneria (Star Fox) Bass Tab

Submitted: Jul 22, 2011 by soundsandstuff (Last updated: Apr 14, 2014)

0
Download | Listen
Game: Star Fox
Composer(s): Hajime Hirasawa
Style: Transcription
Series: Star Fox

AutoScroll: Slow | Medium | Fast
Star Fox - Corneria
Platform: Super Nintendo Entertainment System/SNES
Developer/Publisher: Nintendo
Composed by: Hajime Hirasawa

Bass Guitar Tab Created By: soundsandstuff channel www.youtube.com/user/soundsandstuff
Completed on: 7/22/11

Before playing, tune the 4th (lowest) string on your bass guitar down to D


  Part A
G|-------------------------------------------------|-------------------------------------------------------|
D|-------------------------------------------------|-------------------------------------------------------|
A|-------------------------------------------------|-------------------------------------------------------|
D|-5--5--5--5--5--5--5--5--5--5--5--5--5--5--5--5--|-5--5--5--5--5--5--5--5--5--5--5--5--5--5--3--3--5--5--|

  Part B
G|-------------------------------------------------|-------------------------------------------------|
D|-------------------------------------------------|-------------------------------------------------|
A|-------------------------------------------------|-------------------------------------------------|
D|-5--5--5--5--5--5--5--5--5--5--5--5--5--5--5--5--|-5--3--5--5--5--8--8--5--5--3--5--5--5--8--8--5--|


G|-------------------------------------------------|-------------------------------------------------|
D|-------------------------------------------------|-------------------------------------------------|
A|-------------------------------------------------|-------------------------------------------------|
D|-5--5--5--5--5--5--5--5--5--5--5--5--5--5--5--5--|-5--3--5--5--5--8--8--5--5--3--5--5--5--8--8--5--|




  Part C
G|-------------------------------------------------|-------------------------------------------------|
D|-------------------------------------------------|-------------------------------------------------|
A|-------------------------------------------------|-------------------------------------------------|
D|-1--1--1--1--1--1--1--1--1--1--1--1--1--1--1--1--|-0--0--0--0--0--0--0--0--5--5--5--5--5--5--5--5--|


G|-------------------------------------------------|-------------------------------------------------|
D|-------------------------------------------------|-------------------------------------------------|
A|-------------------------0--0--0--0--0--0--0--0--|-------------------------------------------0--0--|
D|-1--1--1--1--1--1--1--1--------------------------|-0--0--0--0--0--0--0--0--5--5--5--6--6--6--------|

  x                              Part D
G|------------------------------|-------------------------------------------------|
D|------------------------------|-------------------------------------------------|
A|-0--1--1--1--2--3--4--5-------|-------------------------------------------------|
D|------------------------------|-5--5--5--5--5--5--5--5--5--5--5--5--5--5--5--5--|


G|-------------------------------------------------|-------------------------------------------------|
D|-------------------------------------------------|-------------------------------------------------|
A|-------------------------------------------------|-------------------------------------------------|
D|-5--3--5--5--5--8--8--5--5--3--5--5--5--8--8--5--|-5--5--5--5--5--5--5--5--5--5--5--5--5--5--5--5--|

						     Part E
G|-------------------------------------------------|-------------------------------------------------|
D|-------------------------------------------------|-------------------------------------------------|
A|-------------------------------------------------|-------------------------------------------------|
D|-5--3--5--5--5--8--8--5--5--3--5--5--5--8--8--5--|-1--1--1--1--1--1--1--1--1--1--1--1--1--1--1--1--|


G|-------------------------------------------------|-------------------------------------------------|
D|-------------------------------------------------|-------------------------------------------------|
A|-------------------------------------------------|-------------------------0--0--0--0--0--0--0--0--|
D|-0--0--0--0--0--0--0--0--5--5--5--5--5--5--5--5--|-1--1--1--1--1--1--1--1--------------------------|


G|-------------------------------------------------|-------------------------------------------------|
D|-------------------------------------------------|-------------------------------------------------|
A|-------------------------------------------------|-------------------------------------------------|
D|-0--0--0--0--0--0--0--0--5--5--5--5--5--5--5--5--|-5--5--------------5--5--------5--5--------------|

  	 


  xx	     Part F
G|-----------|-------------------------------------------------|-------------------------------------------------------|
D|-----------|-------------------------------------------------|-------------------------------------------------------|
A|-----------|-------------------------------------------------|-------------------------------------------------------|
D|-5--5------|-5--5--5--5--5--5--5--5--5--5--5--5--5--5--5--5--|-5--5--5--5--5--5--5--5--5--5--5--5--5--5--3--3--5--5--|


G|-----------------------------------------------|-----------------------------------------------|
D|-----------------------------------------------|-----------------------------------------------|
A|-----------------------------------------------|-----------------------------------4-----3--0--|
D|-5--3--3--5--5--8--0--5---3--3--5--5--8--0--5L-|-5--3--3--5--5--8--0--5---3--3--5-----5--------|


G|-----------------------------------------------|-------------------------------------------------|
D|-----------------------------------------------|-------------------------2--2--1--1--0-----------|
A|----------0--0--3-----0---------0--0--3-----0L-|-0--------0--0--3-----0--------------------------|
D|-5--5--5-----------2------5--5-----------5-----|----5--5-----------2--------------------3--3--4--|


G|-----------------------------------------------|-----------------------------------------------|
D|-----------------------------------------------|-----------------------------------------------|
A|-----------------------------------------------|-----------------------------------4-----3--0--|
D|-5--3--3--5--5--8--0--5---3--3--5--5--8--0--5L-|-5--3--3--5--5--8--0--5---3--3--5-----5--------|


G|-----------------------------------------------|-------------------------------------------------|
D|-----------------------------------------------|-------------------------2--2--1--1--0-----------|
A|----------0--0--3-----0---------0--0--3-----0L-|-0--------0--0--3-----0--------------------------|
D|-5--5--5-----------2------5--5-----------5-----|----5--5-----------2--------------------3--3--4--| 	Repeat from the start


Notes:

L - Tied Note

Parts B and C are identical to Parts D and E respectively, except for the last 3 measures in Part E where it does a transition

There are two measures labelled "x" and "xx" in the text file.  
It sounded like the time signatures changed for these measures but I wasn't sure how to enter it into tuxguitar. 
I ended up marking measure "x" with a time signature of 2/4 and measure "xx" 1/4, 
so in the gp5 and midi there are slight pauses for rests left over in those measures that I didn't know how to get rid of. 
Otherwise, the song is supposed to play continuously without any breaks x/  


Thank you for playing!
Login or Register to remove this ad.