Login or Register to remove this ad.

Innocence (Star Ocean: First Departure) Guitar Tab

Submitted: Jan 06, 2017 by MechaKrauser

5
Average: 5 (1 vote)
Download | Listen
Game: Star Ocean: First Departure
Composer(s): Motoi Sakuraba
Style: Arrangement, Fingerstyle

AutoScroll: Slow | Medium | Fast
Innocence                                            
from Star Ocean: First Departure
music by Motoi Sakuraba
tab by MechaKrauser

Drop D tuning, capo on 7
6/8 time, 92bpm


   {Segno}
   
      S  S E  E  E  T  T  S E     S  S E  E  E  E  E     S  S E  E  E  T  T  S E   
E||---2h-3-5-----3--2h-3p-2-0--|--2h-3-5-----8--------|--2h-3-5-----3--2h-3p-2-0--|
B||-----------3----------------|----------3-----------|----------3----------------|
G||*---------------------------|----------------0--0--|---------------------------|
D||*--0----4--4-----2-------2--|--0----4--4-----------|--0----4--4-----2-------2--|
A||--------------3-------------|-------------3--------|-------------3-------------|
D||----------------------------|----------------------|---------------------------|

  .  .  .                                       ^                                          
  E  E  E  E  S  S E       T  S T T  S T T  S T S. S. S S S      S  S E  E  E  T  T  S E   
-----------0--0h-1-3---||-----------------------------------||---2h-3-5-----3--2h-3p-2-0--|
--3-----3--------------||--5s-3---3s-1------------------1-0-||-----------3----------------|
-----3--------0----0--*||--4s-2---2h-0---5s-4---2-----2-0---||*---------------------------|
-----3--3-------------*||----------------5s-4---0--3--0---2-||*-------4--4-----2-------2--|
--1--------3-----------||--------------------------3--------||--------------3-------------|
-----------------------||-----------------------------------||---0------------------------|

                                                     .  .  .
  S  S E  E  E  E  E     S  S E  E  E  T  T  S E     E  E  E  E  S  S E     
--2h-3-5-----8--------|--2h-3-5-----3--2h-3p-2-0--|-----------0--0h-1-3---||
----------3-----5--5--|----------3----------------|--3-----3--------------||
----------------0--0--|---------------------------|-----3--------0----0--*||
-------4--4-----------|-------4--4-----2-------2--|-----3--3-------------*||
-------------3--------|-------------3-------------|--1--------3-----------||
--0-------------------|--0------------------------|-----------------------||


  E  E  E  E  E  E     E  E  E  E  E  E     E  E  E  E  E  E     E  E  E  E  E  E   
--------------------|--0-----------------|--------------------|--0-----------------|
--3-----------------|--2--------3--------|--3-----------------|--2--------3--------|
--2-----------0--0--|-----2--2--4--0--0--|--2-----------0--0--|-----2--2--4--0--0--|
-----4--4-----0--0--|-----2--2-----0--0--|-----4--4-----0--0--|-----2--2-----0--0--|
-----5--5-----------|--0-----------------|-----5--5-----------|--0-----------------|
--0--------5--------|-----------5--------|--0--------5--------|-----------5--------|


                                                                      /1st Ending

    E  E  S S E  E  E     E  E  E  E  E  E     E  E  S S S S S S S S    E  E  E  E  E  E     
|-----------2-4--2--4--|--5--------9--------|----------2-4-2-4---2-4-|--5--------0---------||
|---5-----5------------|--------------------|--5-----5---------5-----|---------------------||
|*--4------------------|--6--------9--------|--4---------------------|--6--------2--------*||
|*-----2--2-L----2--2--|--------------------|-----2--2-L-----2-L-2-L-|--------------------*||
|----------------------|--0--0--0--0--0--0--|------------------------|--0--0--0--0--0--0---||
|---2---------2--------|--------------------|--2---------2-----------|---------------------||


 /2nd Ending

  E  E  E  E  E  E       S S S S S S S S S S S S    S S S S S S S S S S S S  
--5-----------------||-----0-2---0-2-3---2-3-5---|--3-5-7-0-7-0-3-2-0-------|
--------------------||---3---------------------3-|--------------------3-2-0-|
--6-----------------||*--------2-------0---------|--------------------------|
--------------------||*--------------------------|--------------------------|
--0--0--0--0--0--0--||---------------------------|--0-----------------------|
--------------------||---0-----------5-L-5-L-5-L-|--------------5-L-5-L-5-L-|


 /1st Ending                            /2nd Ending                  Da Segno*
  ^                                       ^                                    
  Q.     E  E  E     Q.     E  E  E       Q.     E  E  E     Q.     E  E  E    
------------------|-------------------||------------------|--0------3--------||
---------0--------|--2------3---------||--3---------------|------------------||
--2------0--------|--2------0--------*||------------------|--2------0--------||
--4---------------|------------------*||--4---------------|------------------||
------------------|--0----------------||------------------|--0---------------||
--0------5--5--5--|---------5--5--5---||--0------5--5--5--|---------5--5--5--||




Duration Legend
---------------
W - whole
H - half
Q - quarter
E - 8th
S - 16th
T - 32nd
X - 64th
. - note dotted
|-n-|  - n-tuplets


Tablature Legend
----------------
L - tied note
x - dead note
g - grace note
(n) - ghost note
> - accentuded note
NH - natural harmonic
AH - artificial harmonic
TH - tapped harmonic
SH - semi harmonic
PH - pitch harmonic
h - hammer on
p - pull off
b - bend
br - bendRelease
pb - preBend
pbr - preBendRelease
brb - bendReleaseBend
\n/ - tremolo bar dip
\n - tremolo bar dive
-/n - tremolo bar Release up
/n\ - tremolo bar inverted dip
/n - tremolo bar return
-\n - tremolo bar Release down
S - shift slide
s - legato slide
/ -  slide into from below or out of upwards
\ -  slide into from above or out of downwards
~ - vibrato
W - wide vibrato
tr - trill
TP - tremolo picking
T - tapping
S - slap
P - pop
< - fade in
^ - brush up
v - brush down
Login or Register to remove this ad.