Ads

Stage Clear (Star Fox) Guitar Tab

Submitted: Mar 09, 2014 by diralark (Last updated: Apr 14, 2014)

5
Average: 5 (1 vote)
Download | Listen
Game: Star Fox
Composer(s): Hajime Hirasawa
Style: Arrangement, Fingerstyle
Series: Star Fox

AutoScroll: Slow | Medium | Fast
      Stage Clear    -    From Star Fox

Music by Hajime Hirasawa >> Guitar arr. by Diralark

Guitar, Std tuning, let ring

(Intro) Tempo:108
                 V                      --      --]     VIII                      
     > > > > > > > > > > > > >   > >    >  >    >       >        >  > > >         
     S S S S S S S S S S S S S S S S    S  S  S S    S  S     S  S  S S E  E  E   
E||----------------------------------|--5---------------------------8-8-8--------|
B||------------------------5-----5-8-|-----6p-5----------------------------------|
G||----0---0---7-5---5---5---5-5-5---|----------5--------------------------------|
D||--8---8---8-----7---5-7---7-------|--------------------------10-10------------|
A||--------------8-------------------|--------------(0)-8------------------------|
E||--6-------------------------------|--6--------------------12-----8---8--8-----|


(Main part) Tempo:118
    I                                                                                    
    >        >                 >      >  >  >  >  >  >     >          >  >  >            
    E  E  E  E  E  E  E  E     S S E  E  E  E  E  E  E     E  E   E   S  S  E  E  E  E   
|---------------------------|---------------------------|-------------------------------|
|------------1--------------|---------0--1--3--------0--|--3----------1p-0h-1-----------|
|*--2--------2-----2-----2--|--0---------0-----0--2-----|--0-----(0)-----------0-----0--|
|*--2--------2-----2-----2--|----0-------------0--------|----------------------0--3-----|
|---------------------------|---------------------------|-------------------------------|
|---1--1--1-----1-----1-----|--1---1-----1-----1--------|--0--0---0------------0--------|


                              VI                            --                          
         >  >  >  >  >        >        >  >  >     >        >        >  >  >     >      
  S S E  E  E  E  E  E  E     E  E  E  S  S  E  E  E  E     E  E  E  S  S  E  E  E  E   
---------------------0-----|-----------------------------|-----------------------------|
--1------1-----3-----1--1--|--6--------------------6-----|--6--------------------6-----|
---------------------------|--7--------------------------|--7--------------------------|
----2-------2-----2--------|--8--------8p-7h-8-----------|--8--------8p-7h-8-----------|
--0---3-----0-----3--------|-----------------------------|--------------------8-----8--|
---------------------------|--6--6--6-----------6-----6--|--6--6--6--------------------|


                                             VIII                             
   >             >             >             >            >        >          
   S  S  E   E   S  S  E   E   S  S  S  S    S    S E  E  S S Q    S S S S  6x
------------------------------------------|--8----8-8-----8-8-8----8-8-8-8--||
------------------------------------------|---------------------------------||
--12-12-12------12-12-12------12-12-12-12-|--9------------9--------9-------*||
--12------------12------------12----------|--------------------------------*||
------------------------------------------|---------------------------------||
--11--------11------------11--------------|--8---------8-----------8--------||

Legend
---------------
W - whole duration 
H - half
Q - quarter
E - 8th
S - 16th
. - note dotted
L - tied note
(n) - ghost note
> - accentuded note
h - hammer on
p - pull off

OST : https://www.youtube.com/watch?v=IFuGOFWrr80
Login or Register to remove this ad.