100 Rads Bar Radio Song (S.T.A.L.K.E.R.: Shadow of Chernobyl) Guitar Tab

Submitted: Aug 13, 2014 by scarecrowlol

5
Average: 5 (7 votes)
Download | Listen
Game: S.T.A.L.K.E.R.: Shadow of Chernobyl
Composer(s): Andy Brick, Frey Vladimir
Style: Arrangement, Fingerstyle

AutoScroll: Slow | Medium | Fast
Title: 100 Rads Bar Radio Song
SubTitle: S.T.A.L.K.E.R Shadow of Chernobyl
Tabber: Mitch Jackson
Tempo = 140
T/S = 4/4


     E  E  E  E  E  E  E  E       E  E  E  E  E  E  E  E       E  E  E  E  E  E  E  E       E  E  E  E  E  E  E  E     
B |-----------0----------------|-----------0----------------|-----------0----------------|-----------0----------------|
F#|--3-----3-----3-----3-------|--------3-----3-------------|--0-----3-----3-----3-------|--------3-----3-----3--0----|
D |-----2-----------2-----2----|-----2-----------2----------|-----1-----------1-----1----|-----1-----------1-----1----|
A |--0-------------------------|--3-----------------2--3----|--0-------------------------|--0-------------------------|
E |----------------------------|----------------------------|----------------------------|----------------------------|
B |----------------------------|----------------------------|----------------------------|----------------------------|

                                                          
     E  E  E  E  E  E  E  E       E  E  E  E  E  E  E  E       E  E  E  E  E  E  E  E       E  E  E  E  E  E  E  E     
  |-----------0----------------|-----------0----------------|--4--------0----------------|-----------0----------------|
  |--1-----3-----3-----3-------|--------3-----3-----3-------|--------3-----3-----3-------|--------3-----3-----3-------|
  |-----2-----------2-----2----|--2--2-----------2----------|-----1-----------1-----1----|-----1-----------1-----1----|
  |--0-------------------------|--3--------------------3----|--0-------------------------|--0-------------------------|
  |----------------------------|----------------------------|----------------------------|----------------------------|
  |----------------------------|----------------------------|----------------------------|----------------------------|

                                                          
     E  E  E  E  E  E  E  E       E  E  E  E  E  E  E  E       E  E  E  E  E  E  E  E       E  E  E  E  E  E  E  E     
  |-----------0--------0-------|-----------0----------------|-----------0--------0-------|-----------0--------0-------|
  |--3-----3-----3--------3----|--------3-----3-------------|--0-----3-----3--------3----|--------3-----3--------0----|
  |-----2-----------2----------|-----2-----------2----------|-----1-----------1----------|-----1-----------1----------|
  |--0-------------------------|--3-----------------2--3----|--0-------------------------|--0-------------------------|
  |----------------------------|----------------------------|----------------------------|----------------------------|
  |----------------------------|----------------------------|----------------------------|----------------------------|

                                                          
     E  E  E  E  E  E  E  E       E  E  E  E  E  E  E  E       E  E  E  E  E  E  E  E       E  E  E  E  H              
  |-----------0--------0-------|-----------0--------0-------|--4--------0--------0-------|-----------0----------------|
  |--1-----3-----3--------3----|--------3-----3--------3----|--------0-----3--------3----|--------3-------------------|
  |-----2-----------2----------|--2--2-----------2----------|-----1-----------1----------|-----1--------1-------------|
  |--0-------------------------|--3-------------------------|--0-------------------------|--0-------------------------|
  |----------------------------|----------------------------|----------------------------|----------------------------|
  |----------------------------|----------------------------|----------------------------|----------------------------|

                                                           
      E  E  E  E  E  E  E  E       E  E  E  E  E  E  E  E       E  E  E  E  E  E  E  E       E  E  E  E  E  E  E  E     
  ||----------------------------|-----------0-----3----------|--------------------5-------|--2--------3-----0----------|
  ||-----------0--------0-------|--0-------------------------|-----------0----------------|-----------0-----0-----0----|
  ||o-------------0-------------|-----------0----------------|--------------0-------------|--------------------2-------|
  ||o----2-----------2----------|--------2-----2--------2----|-----2-----------2----------|--------2-----2--------2----|
  ||--3-----3-------------------|-----2--------------2-------|--3-----3-------------------|-----2----------------------|
  ||--------------------2--3----|--0--------------0----------|--------------------2--3----|--0-------------------------|

                               |-------FIRST ENDING-------->                           
     E  E  E  E  E  E  E  E       E  E  E  E  E  E  E  E       E  E  E  E  E  E  E  E       E  E  E  E  E  E  Q        
  |----------------------------|-----------0----------------|----------------------------|---------------------------||
  |-----------0--------0-------|--0--------------3----------|----------------------------|---------------------------||
  |--------------0-------------|-----------0----------------|-----0-----0--------0-------|-----0--------0-----------o||
  |-----2-----------2----------|--------2-----2--------2----|--------3-----3--------3----|--------3--------3--------o||
  |--3-----3-------------------|-----2--------------2-------|--1--------------1----------|--1--------1--------1------||
  |--------------------2--3----|--0--------------0----------|----------------------------|---------------------------||

  |-------SECOND ENDING------->                                                        
     E  E  E  E  E  E  E  E       E  E  E  E  E  E  E  E       E  E  E  E  E  E  Q          W                          
  |----------------------------|----------------------------|----------------------------|----------------------------|
  |--0--------3-----1----------|----------------------------|----------------------------|----------------------------|
  |-----------0----------------|-----0-----0--------0-------|-----0--------0-------------|----------------------------|
  |--------2-----2--------2----|--------3-----3--------3----|--------3--------3----------|----------------------------|
  |-----2--------------2-------|--1--------------1----------|--1--------1--------1-------|--L-------------------------|
  |--0--------------0----------|----------------------------|----------------------------|----------------------------|

           
     E  E  E  E  E  E  E  E       E  E  Q     E  E  E  E       E  E  E  E  E  E  E  E       E  E  Q     E  E  E  E     
  |----------------------------|----------------------------|--------------------3--2----|----------------------------|
  |----------------------------|--0-------------------------|----------------------------|--0-------------------------|
  |--------------------0--0----|--------------0-------------|-----------0----------------|--------------0-------------|
  |--------------3--3--3--3----|--------------------4-------|-----------------4----------|--------4-----------4-------|
  |--1--1--1--1--1--1--1--1----|--------2--------------2----|----------------------------|--3--3--3-----3--3-----3----|
  |----------------------------|--0--0--0-----0--0----------|--0--0--0-----0--0----------|----------------------------|

                                                          
     E  E  E  E  E  E  E  E       E  E  Q     E  E  E  E       E  E  E  E  E  E  Q          E  E  Q     E  E  E  E     
  |--------------------3--2----|----------------------------|----------------------------|----------------------------|
  |----------------------------|----------------------------|----------------------------|----------------------------|
  |-----------2----------------|--2-----------0-------------|-----------0----------------|--5-----------0-------------|
  |-----4-----------4----------|--------------------4-------|-----------------4----------|--------4-----------4-------|
  |--3--3--3-----3--3----------|--------2--------------2----|--------------------2-------|--3--3--3-----3--3-----3----|
  |----------------------------|--0--0--0-----0--0----------|--0--0--0-----0--0----------|----------------------------|

                                                          
     E  E  E  E  E  E  E  E       E  E  Q     E  E  E  E       E  E  E  E  E  E  Q          E  E  Q     E  E  E  E     
  |--------------------3--2----|-----------------------3----|----------------------------|--2-------------------------|
  |-----------------0----------|----------------------------|----------------------------|----------------------------|
  |-----------5----------------|--2-----------0-------------|-----------0----------------|--------------0-------------|
  |-----4----------------------|--------------------4-------|-----------------4----------|--------4-----------4-------|
  |--3--3--3-----3--3----------|--------2-------------------|--------------------2-------|--3--3--3-----3--3-----3----|
  |----------------------------|--0--0--0-----0--0----------|--0--0--0-----0--0----------|----------------------------|

                                                          
     E  E  E  E  E  E  E  E       E  E  E  E  E  E  E  E       E  E  E  E  E  E  Q          E  E  Q     E  E  E  E     
  |--------------------3--2----|----------------------------|----------------------------|----------------------------|
  |----------------------------|--0-------------------------|----------------------------|----------------------------|
  |-----------2----------------|--------------0-------------|-----------0-----2----------|--5-----------0-------------|
  |-----4-----------4----------|-----------4--------4-------|----------------------------|--------4-----------4-------|
  |--3--3--3-----3--3----------|--------2--------------2----|--------------------2-------|--3--3--3-----3--3-----3----|
  |----------------------------|--0--0--0-----0--0----------|--0--0--0-----0--0----------|----------------------------|
                                                          

     E  E  E  E  E  E  Q          E  E  E  E  E  E  E  E       S S E  E  E  E  E  E  E       E  E  E  E  E  E  E  E     
  |----------------------------|----------------------------|--3p2------------------------|----------------------------|
  |-----------------0----------|-----1--------1--------1----|------1-----1--0--1----------|--------1--------1----------|
  |-----------5----------------|--------4--------4--0-------|------------------------2----|----------------------------|
  |-----4----------------------|--2--------3----------------|---------2-----------2-------|-----2--------3--------3----|
  |--3--3--3-----3--3--3-------|----------------------------|------0----------------------|--0--------0--------0-------|
  |----------------------------|----------------------------|-----------------------------|----------------------------|


     W                            E  E  E  E  E  E  E  E       S S E  E  E  E  E  E  E       E  Q     E  Q     E  E     
  |----------------------------|----------------------------|--3p2------------------------|----------------------------|
  |--0-------------------------|-----1--------1--------1----|------------1--0--1----------|-----------------------1----|
  |----------------------------|--------4--------4--0-------|------2-----------------2----|----------------------------|
  |----------------------------|--2--------3----------------|---------2-----------2-------|-----2--------3--------3----|
  |----------------------------|----------------------------|------0----------------------|--0--------0--------0-------|
  |----------------------------|----------------------------|-----------------------------|----------------------------|

                                                     
     W                            E  E  E  E  E  E  E  E       S S E  E  E  E  E  E  E       E  E  E  E  E  E  E  E     
  |----------------------------|----------------------------|--3p2------------------------|----------------------------|
  |--L-------------------------|-----1--------1--------1----|------1-----1--0--1----------|--------1--------1----------|
  |----------------------------|--------4--------4--0-------|------------------------2----|----------------------------|
  |--L-------------------------|--2--------3----------------|---------2-----------2-------|-----2--------3--------3----|
  |----------------------------|----------------------------|------0----------------------|--0--------0--------0-------|
  |----------------------------|----------------------------|-----------------------------|----------------------------|

                                                     
     W                            E  E  E  E  E  E  E  E       E  E  E  E  E  E  E  E       E  Q     E  Q     E  E     
  |----------------------------|----------------------------|--3-------------------------|----------------------------|
  |--0-------------------------|-----1--------1--------1----|-----------1--0--1----------|-----------------------1----|
  |--2-------------------------|--------4--------4--0-------|-----------------------2----|----------------------------|
  |----------------------------|--2--------3----------------|--------2-----------2-------|-----2--------3--------3----|
  |----------------------------|----------------------------|-----0----------------------|--0--------0--------0-------|
  |----------------------------|----------------------------|----------------------------|----------------------------|

   
     W                             E  E  E  E  E  E  E  E       E  E  E  E  E  E  E  E       E  E  E  E  E  E  E  E     
  |----------------------------||----------------------------|-----------0-----3----------|--------------------5-------|
  |--L-------------------------||-----------0--------0-------|--0-------------------------|-----------0----------------|
  |----------------------------||o-------------0-------------|-----------0----------------|--------------0-------------|
  |--L-------------------------||o----2-----------2----------|--------2-----2--------2----|-----2-----------2----------|
  |----------------------------||--3-----3-------------------|-----2--------------2-------|--3-----3-------------------|
  |----------------------------||--------------------2--3----|--0--------------0----------|--------------------2--3----|

                                                            |-------FIRST ENDING-------->
     E  E  E  E  E  E  E  E       E  E  E  E  E  E  E  E       E  E  E  E  E  E  E  E       E  E  E  E  E  E  E  E     
  |--2--------3-----0----------|----------------------------|-----------0----------------|----------------------------|
  |-----------0-----0-----0----|-----------0--------0-------|--0--------------3----------|----------------------------|
  |--------------------2-------|--------------0-------------|-----------0----------------|-----0-----0--------0-------|
  |--------2-----2--------2----|-----2-----------2----------|--------2-----2--------2----|--------3-----3--------3----|
  |-----2----------------------|--3-----3-------------------|-----2--------------2-------|--1--------------1----------|
  |--0-------------------------|--------------------2--3----|--0--------------0----------|----------------------------|

                               |-------SECOND ENDING------->                           
     E  E  E  E  E  E  Q          E  E  E  E  E  E  E  E       E  E  E  E  E  E  E  E       E  E  E  E  E  E  Q        
  |---------------------------||----------------------------|----------------------------|----------------------------|
  |---------------------------||--0--------3-----1----------|----------------------------|----------------------------|
  |-----0--------0-----------o||-----------0----------------|-----0-----0--------0-------|-----0--------0-------------|
  |--------3--------3--------o||--------2-----2--------2----|--------3-----3--------3----|--------3--------3----------|
  |--1--------1--------1------||-----2--------------2-------|--1--------------1----------|--1--------1--------1-------|
  |---------------------------||--0--------------0----------|----------------------------|----------------------------|

                                                          
     W                           E  E  E  E  E  E  E  E       Q     Q     Q     E  E       E  Q     Q     E  E  E     
  |---------------------------|----------------------------|----------------------------|--------------------3--2----|
  |---------------------------|----------------------------|----------------------------|----------------------------|
  |---------------------------|--------------------0--0----|--------------0-------------|-----------0----------------|
  |---------------------------|--------------3--3--3--3----|--------------------4-------|-----------------4----------|
  |--L------------------------|--1--1--1--1--1--1--1--1----|--------2--------------2----|--L-----------------2-------|
  |---------------------------|----------------------------|--0-------------------------|-----0----------------------|

                                                          
     Q     Q     Q     E  E       E  Q     Q     E  E  E       E  E  Q     E  E  E  E       E  E  E  E  E  E  Q        
  |----------------------------|--------------------3--2----|----------------------------|----------------------------|
  |--0-------------------------|----------------------------|----------------------------|----------------------------|
  |--------------0-------------|-----------2----------------|--2-----------0-------------|-----------0----------------|
  |--------4-----------4-------|-----4-----------4----------|--------------------4-------|-----------------4----------|
  |--3--------------------3----|--L-------------------------|--------2--------------2----|--------------------2-------|
  |----------------------------|----------------------------|--0--0--0-----0--0----------|--0--0--0-----0--0----------|

                                                          
     E  E  Q     E  E  E  E       E  E  E  E  E  E  E  E       E  E  Q     E  E  E  E       E  E  E  E  E  E  Q        
  |----------------------------|--------------------3--2----|-----------------------3----|----------------------------|
  |----------------------------|-----------------0----------|----------------------------|----------------------------|
  |--5-----------0-------------|-----------5----------------|--2-----------0-------------|-----------0----------------|
  |--------4-----------4-------|-----4----------------------|--------------------4-------|-----------------4----------|
  |--3--3--3-----3--3-----3----|--3--3--3-----3--3----------|--------2-------------------|--------------------2-------|
  |----------------------------|----------------------------|--0--0--0-----0--0----------|--0--0--0-----0--0----------|

                                                          
     E  E  Q     E  E  E  E       E  E  E  E  E  E  E  E       E  E  E  E  E  E  E  E       E  E  E  E  E  E  Q        
  |--2-------------------------|--------------------3--2----|----------------------------|----------------------------|
  |----------------------------|----------------------------|----------------------------|----------------------------|
  |--------------0-------------|-----------2----------------|--0-----------0-------------|-----------0----------------|
  |--------4-----------4-------|-----4-----------4----------|-----------4--------4-------|-----------------4----------|
  |--3--3--3-----3--3-----3----|--3--3--3-----3--3----------|--------2--------------2----|--------------------2-------|
  |----------------------------|----------------------------|--0--0--0-----0--0----------|--0--0--0-----0--0----------|

                                                          
     E  E  Q     E  E  E  E       E  E  E  E  E  E  Q          E  E  E  E  E  E  E  E       S S E  E  E  E  E  E  E     
  |----------------------------|----------------------------|----------------------------|--3p2------------------------|
  |----------------------------|-----------------0----------|-----1--------1--------1----|------1-----1--0--1----------|
  |--5-----------0-------------|-----------5----------------|--------4--------4--0-------|------------------------2----|
  |--------4-----------4-------|-----4----------------------|--2--------3----------------|---------2-----------2-------|
  |--3--3--3-----3--3-----3----|--3--3--3-----3--3--3-------|----------------------------|------0----------------------|
  |----------------------------|----------------------------|----------------------------|-----------------------------|

                             
     E  E  E  E  E  E  E  E       W                            E  E  E  E  E  E  E  E       S S E  E  E  E  E  E  E     
  |----------------------------|----------------------------|----------------------------|--3p2------------------------|
  |--------1--------1----------|--0-------------------------|-----1--------1--------1----|------3-----1--0--1----------|
  |----------------------------|----------------------------|--------4--------4--0-------|------------------------2----|
  |-----2--------3--------3----|----------------------------|--2--------3----------------|---------2-----------2-------|
  |--0--------0--------0-------|----------------------------|----------------------------|------0----------------------|
  |----------------------------|----------------------------|----------------------------|-----------------------------|

                                                     
     E  Q     E  Q     E  E       W                            E  E  E  E  E  E  E  E       S S E  E  E  E  E  E  E     
  |-----------------------0----|--L-------------------------|----------------------------|--3p2------------------------|
  |----------------------------|----------------------------|-----1--------1--------1----|------0-----1--0--1----------|
  |----------------------------|----------------------------|--------4--------4--0-------|------------------------2----|
  |-----2--------3--------3----|--L-------------------------|--2--------3----------------|---------2-----------2-------|
  |--0--------0--------0-------|----------------------------|----------------------------|------0----------------------|
  |----------------------------|----------------------------|----------------------------|-----------------------------|

       
     E  E  E  E  E  E  E  E       W                            E  E  E  E  E  E  E  E       E  E  E  E  E  E  E  E     
  |----------------------------|----------------------------|----------------------------|--3-------------------------|
  |--------1--------1----------|--0-------------------------|-----1--------1--------1----|-----------1--0--1----------|
  |----------------------------|--2-------------------------|--------4--------4--0-------|-----------------------2----|
  |-----2--------3--------3----|----------------------------|--2--------3----------------|--------2-----------2-------|
  |--0--------0--------0-------|----------------------------|----------------------------|-----0----------------------|
  |----------------------------|----------------------------|----------------------------|----------------------------|

                        
     E  Q     E  Q     E  E       W                             E  E  E  E  E  E  E  E       E  E  E  E  E  E  E  E     
  |----------------------------|----------------------------||----------------------------|-----------0-----3----------|
  |-----------------------0----|--L-------------------------||-----------0--------0-------|--0-------------------------|
  |----------------------------|----------------------------||o-------------0-------------|-----------0----------------|
  |-----2--------3--------3----|--L-------------------------||o----2-----------2----------|--------2-----2--------2----|
  |--0--------0--------0-------|----------------------------||--3-----3-------------------|-----2--------------2-------|
  |----------------------------|----------------------------||--------------------2--3----|--0--------------0----------|

                                                                                         |-------FIRST ENDING-------->
     E  E  E  E  E  E  E  E       E  E  E  E  E  E  E  E       E  E  E  E  E  E  E  E       E  E  E  E  E  E  E  E     
  |--------------------5-------|--2--------3-----0----------|----------------------------|-----------0----------------|
  |-----------0----------------|-----------0-----0-----0----|-----------0--------0-------|--0--------------3----------|
  |--------------0-------------|--------------------2-------|--------------0-------------|-----------0----------------|
  |-----2-----------2----------|--------2-----2--------2----|-----2-----------2----------|--------2-----2--------2----|
  |--3-----3-------------------|-----2----------------------|--3-----3-------------------|-----2--------------2-------|
  |--------------------2--3----|--0-------------------------|--------------------2--3----|--0--------------0----------|

                                                            |-------SECOND ENDING------->               
     E  E  E  E  E  E  E  E       E  E  E  E  E  E  Q          E  E  E  E  E  E  E  E       E  E  E  E  E  E  E  E     
  |----------------------------|---------------------------||----------------------------|----------------------------|
  |----------------------------|---------------------------||--0--------3-----1----------|----------------------------|
  |-----0-----0--------0-------|-----0--------0-----------o||-----------0----------------|-----0-----0--------0-------|
  |--------3-----3--------3----|--------3--------3--------o||--------2-----2--------2----|--------3-----3--------3----|
  |--1--------------1----------|--1--------1--------1------||-----2--------------2-------|--1--------------1----------|
  |----------------------------|---------------------------||--0--------------0----------|----------------------------|

                                                                                         BPM=92
     E  E  E  E  E  E  Q          W                            E  E  E  E  E  E  E  E       Q     Q     Q       
  |----------------------------|----------------------------|----------------------------|----------------------------|
  |----------------------------|----------------------------|----------------------------|----------------------------|
  |-----0--------0-------------|----------------------------|--------------------0--0----|--------------0-------------|
  |--------3--------3----------|----------------------------|--------------3--3--3--3----|--------4-------------------|
  |--1--------1--------1-------|--L-------------------------|--1--1--1--1--1--1--1--1----|--2-------------------------|
  |----------------------------|----------------------------|----------------------------|--0-------------------------|


     W                            W                      
  |----------------------------|----------------------------||
  |----------------------------|----------------------------||
  |--L-------------------------|--L-------------------------||
  |--L-------------------------|--L-------------------------||
  |--L-------------------------|--L-------------------------||
  |--L-------------------------|--L-------------------------||

Login or Register to remove this ad.

5 comments on 100 Rads Bar Radio Song

Excellent! I wanted to make

Excellent! I wanted to make it too ;)

Guess i beat you to it ;P it

Guess i beat you to it ;P it happened to catch my ear when i was playing the game and i decided to tab it on the spot. Wasn't easy though, couldn't find the sound file for it anywhere in the game files so had to use a low quality youtube video and nut it out :\

I know that feeling ;P

5

I know that feeling ;P

This is pretty sweet. I

5

This is pretty sweet. I played it with capo 7 and standard tuning though. No way I'm going to tune my guitar THAT low :P

Haha yea its pretty damn low,

Haha yea its pretty damn low, luckily when i came to tab this i had medium gauge strings on my acoustic from tuning down to drop G lol. I love deep tunings