One Summer's Day (Spirited Away) Ukulele Tab

Submitted: May 16, 2015 by CandyCane52

3
Average: 3 (2 votes)
Download | Listen
Game: Spirited Away
Composer(s): Joe Hisaishi
Style: Transcription

AutoScroll: Slow | Medium | Fast
One Summer's Day
Spirited Away
Joe Hisaishi
CandyCane52
09/05/2015
 0:00				:20
G-0-----0-----------------	------------------------------------------------------------------------------------------------------------------------------
C--5-----2----2----1----4-	---------------------------------5------------------------------------------------------------------------------------------2-
E---5-----0----1----5---0-	-12-12-12-12-10-12----12-1010----7-10-10-10-10-8-10----10-8-7-8--------3---------------1-----------------0------------------3-
A----7-----3----1----5----	-------------------12-------------------------------10-------------0h2h3-3-3-3-3---0h2h3-3-3-3-2-3---0h2h3-3-3-3-3--10---3--5-
 :45									:55
G----------------------------------------------------------------------------------------------------------------------------------
C-11----------------------------------9----------------------------9------------------------------------------3------------------0-
E-12-12-12-12-12-10-12----12-1010----10-10-10-10-10-8-10----10-8-7-8--------1-------1-------0-----------------1-------1----------4-
A----------------------12--------------------------------10-------------0h2h3-3-3-3-3---0h2h3-3-3-3-2-3---0h2h3-3-3-3-3--10--8p6p5-
 1:07
G--------------------------------------------------------------------------------------------------------
C-4--5-----------------------------2--0-----------------------------------6-------0-----2------6-------0-
E-------10-10--10-10---------------1--0-----10-10-10-10-10----------------7-------0--1---------7-------1-
A-7--8--10-10--10-10--8-7-5-5-7p3-------7h8h10-10-10-10-10-8-7-5-5-7--3-5-7--0-3--0--------3-5-7--0-3--0-
 1:33									  
G--------------------------------------------------------------------0--------------0----------------------------------------------
C---------------------------------3-----3-2--0---3-----------0-0------------0-------2----------3--------------------------0------0-
E----------------0-3-5-5-3-1-3--3-3-1-1---1----1-3--4-3------0-0-----0--0-3-5-5-3-1-3--3-3-1-1---1--3-4-6-4-4-3-4--3h4h6--1--4---4-
A-0-2-3-3-5-3-2------------------------------------------0-2-3-3-5-3-2----------------------------------------------------3----1-3-
 2:03												2:43
G----------------------------------------------------------------------------------------------------------------0----------------------------------------
C-------2---------------2---------------------------2---------------7--5--0--2--4---2----0--0--2----5------------4----------------0--0-2-------------6--2-
E----------3--------0-0---0---0----------3----------3------3--------------------0---3----1--1--3----5------------5-----------------------0-1---------7--0-
A-3-2-3-5----3-2-3----------0----0-0-0-0---0-5-2--0-3---2-----0----10--8--3--5-----------1--1--3----7-5-7-12-7---5-3-5-10-5---0-2-3----------0-2-3-5-7----
 2:56
G---------------------------------------------------------------------0--------------0----------------------------------------------------------------------------0-
C----------------------------------3-----3-2--0---3-----------0-0------------0-------2----------3-------------------------0------3-----------------0--------------5-
E-----------------0-3-----3-1-3--3-3-1-1---1----1-3--4-3------0-0-----0--0-3-5-5-3-1-3--3-3-1-1---1--3-4-6-4-4-3-4--3h4h6-1--4---1-----------3-----0--1-----1-----7-
A-0-2-3-3-5-3-2-2-----0-0---------------------------------0-2-3-3-5-3-2---------------------------------------------------3----1-3--3-2-3-5----3-2-3----0-2---0-2-7-
Login or Register to remove this ad.

2 comments on One Summer's Day

If the formatting of your tab

If the formatting of your tab was a horse, I'd shoot it.

Two comments: Why limit it to

Two comments:

Why limit it to horses?

and

I've seen worse. (Really. Although I don't remember what the tab was.)