Ads

Reminiscence (Speed Grapher) Guitar Tab

Submitted: Oct 25, 2009 by kenor

5
Average: 5 (3 votes)
Download | Listen
Game: Speed Grapher
Composer(s): Shinkichi Mitsumune
Style: Arrangement, Fingerstyle

AutoScroll: Slow | Medium | Fast
Reminiscence
~Speed Grapher~
Composed by: Shinkichi Mitsumune
Arranged by: kenor

Rhytm: 4/4 metrum



     E  E  E  E  H           E  E  E  E  H           E  E  E  E  Q.     E   
E||-----------------------|-----------------------|------------------------|
B||-----------0-----------|-----------1--0--------|-----------0------------|
G||--------2-----0--------|--------2-----0--------|--------2-----0---------|
D||-----2--------0--------|-----2-----------------|-----2--------0------0--|
A||--0--------------------|--0--------------------|--0---------------------|
E||--------------0--------|--------------3--------|--------------0---------|


             ^                                                         
    H        H           E  E  E  E  H           E  E  E  E  H         
----------------------|-----------------------|-----------------------|
----------------------|-----------0-----------|-----------1--0--------|
-------------0--------|--------2--0--0--------|--------2--2--0--------|
--0g2--------0--------|-----2--------0--------|-----2-----------------|
----3--------2--------|--0--------------------|--0--------------------|
----1--------0--------|--------------0--------|--------------0--------|


                                    ^                                    
  E  E  E  E  Q.     E     H        H           E  E  E  E  E  E  E  E   
------------------------|--------------------|-----------0--------------|
-----------0------------|--------------------|--------------3-----1--0--|
--------2--0--0---------|-----------0--------|--2-----------0-----0-----|
-----2--------0------0--|--2--------0--------|--2-----2--------2--------|
--0---------------------|--3--------2--------|-----3--------2-----------|
--------------0---------|--1--------0--------|--1-----------------------|


  E  E  S S S S S S S S S S S S    E  E  E  E  E  E  E  E     E  E  E  E  Q.     E   
--------------3-L---------0-----|-----------0--------------|--3---------------------|
--------0-1-3-----0-1-3-L-------|--------------3-----1--0--|--1--------0--1---------|
--2-------------------------2---|--2-----------0-----0-----|--------0-----2------0--|
-----2--------------------------|--2-----2--------2--------|-----2------------------|
--0-----------------------------|-----3--------2-----------|--0---------------------|
----------------0-------0-----3-|--1-----------------------|------------------------|


  E  E  E  E  E  E  E  E     E  E  S S S S S S S S S S S S    E  E  E  E  E  E  E  E   
-----------0--------------|--------------3-L---------0-----|-----------0--------------|
--------------3-----1--0--|--------0-1-3-----0-1-3-L-------|--------------3-----1--0--|
--2-----------0-----0-----|--2-------------------------2---|--2-----------0-----0-----|
--2-----2--------2--------|-----2--------------------------|--2-----2--------2--------|
-----3--------2-----------|--0-----------------------------|-----3--------2-----------|
--1-----------------------|----------------0-------0-----3-|--1-----------------------|


  ^        ^                                                         
  H        H           E  E  E  E  H           E  E  E  E  H         
-----------5--------|-----------------------|-----------------------|
-----------5--------|-----------0-----------|-----------1--0--------|
--2-----------------|--------2-----0--------|--------2-----0--------|
--4--------4--------|-----2--------0--------|-----2-----------------|
--5--------5--------|--0--------------------|--0--------------------|
--------------------|--------------0--------|--------------3--------|


                                      ^                                 
  E  E  E  E  Q.     E       H        H           E  E  E  E  H         
------------------------|----------------------|-----------------------|
-----------0------------|----------------------|-----------0-----------|
--------2-----0---------|-------------0--------|--------2--0--0--------|
-----2--------0------0--|--0g2--------0--------|-----2--------0--------|
--0---------------------|----3--------2--------|--0--------------------|
--------------0---------|----1--------0--------|--------------0--------|


                                                            ^         
  E  E  E  E  H           E  E  E  E  Q.     E     H        H         
-----------------------|------------------------|--------------------|
-----------1--0--------|-----------0------------|--------------------|
--------2--2--0--------|--------2--0--0---------|-----------0--------|
-----2-----------------|-----2--------0------0--|--2--------0--------|
--0--------------------|--0---------------------|--3--------2--------|
--------------0--------|--------------0---------|--1--------0--------|


  E  E  E  E  E  E  E  E     E  E  S S S S S S S S S S S S    E  E  E  E  E  E  E  E   
-----------0--------------|--------------3-L---------0-----|-----------0--------------|
--------------3-----1--0--|--------0-1-3-----0-1-3-L-------|--------------3-----1--0--|
--2-----------0-----0-----|--2-------------------------2---|--2-----------0-----0-----|
--2-----2--------2--------|-----2--------------------------|--2-----2--------2--------|
-----3--------2-----------|--0-----------------------------|-----3--------2-----------|
--1-----------------------|----------------0-------0-----3-|--1-----------------------|


  E  E  E  E  Q.     S S    E  E  E  E  E  E  E  E     E  E  S S S S S S S S S S S S  
--3----------------------|-----------0--------------|--------------3-L---------0-----|
--1--------0--1----------|--------------3-----1--0--|--------0-1-3-----0-1-3-L-------|
--------0-----2------0-1-|--2-----------0-----0-----|--2-------------------------2---|
-----2-------------------|--2-----2--------2--------|-----2--------------------------|
--0----------------------|-----3--------2-----------|--0-----------------------------|
-------------------------|--1-----------------------|----------------0-------0-----3-|


                             ^        ^           ^           ^            
  E  E  E  E  E  E  E  E     H        H           E  E  E  E  E  E  E  E   
-----------0--------------|-----------5--------|--3-----------0-----------|
--------------3-----1--0--|-----------7--------|--1--0--1--3--0--------1--|
--2-----------0-----0-----|--2--------7--------|--0-----------2--0--2-----|
--2-----2--------2--------|--4--------0--------|--------------4-----------|
-----3--------2-----------|--5-----------------|--0-----------------------|
--1-----------------------|--------------------|--------------------------|


  ^           ^              ^        ^             ^        ^          
  E  E  E  E  E  E  E  E     H        H             H        H          
--------------------------|--------------------|-------------3--------||
--3--------1--0-----------|-----------0--------|----1--------0--------||
--2--0--2-----0--0--------|--2--------1--------|--1g2--------5--------||
--2-----------0-----2--0--|--4--------2--------|----2--------5--------||
--------------------------|--5-----------------|----0--------0--------||
--1-----------0-----------|-----------0--------|----------------------||




Legend:
-------
H - half
Q - quarter
E - 8th
S - 16th
. - note dotted
L - tied note
g - grace note
^ - brush up
Login or Register to remove this ad.

2 comments on Reminiscence

thx kenor

wow kenor u actually did it!!! hehe, ur an amazing guy who made this amazing tab. im gonna learn it today.
i rlly apreciate this :P hope u answer my other request too :P great tab 5/5

Always

Always happy to make people happy =)