Ads

Star Light Zone (Sonic the Hedgehog) Guitar Tab

Submitted: Aug 02, 2009 by Kabukibear (Last updated: Feb 04, 2010)

5
Average: 5 (8 votes)
Download | Listen
Game: Sonic the Hedgehog
Composer(s): Masato Nakamura
Style: Arrangement, Fingerstyle, Natural harmonics
Series: Sonic the Hedgehog

AutoScroll: Slow | Medium | Fast
Star Light Zone                                 
~Sonic The Hedgehog~
Composed by: Masato Nakamura
Arranged by: Justin Lincoln

Double Drop D Tuning

(Optional capo 5 for original key)

     Q    Q    Q    Q         E.  S E  E  Q.     S S    E.  S E  E  Q    Q     
D||----------------------||--------------------------|------2-L--3--2----0----|
B||-----------------3----||---0---0-L--0--L------0-1-|--3---------------------|
G||----------------------||*--0---0-L--0--L----------|--2---2-L--1--L----1----|
D||-------0----2---------||*-------------------------|------------------------|
A||----------------------||--------------------------|------------------------|
D||----------------------||---5---5-L--5--L----------|--3---3-L--2--L----2----|


  E.  S E  E  E  S S E  E     E.  S E  E  Q    E  E     E.  S E  E  Q.     S S  
------0-L------------------|------0-L----------------|-------------------------|
--5---0-L------------0-----|--5---0-L----------0-----|--1---1-L--1--L--------0-|
--5--------5-----5------5--|--5--------5--2----------|--2---2-L--2--L------2---|
-----------7---------------|-----------7--0----------|-------------------------|
--0---0-L--0---------------|-------------------------|-------------------------|
--------------6----6----6--|--5---5-L--5--4-------4--|--0---0-L--0--L----------|


  E.  S E  E  Q    E  E     E.  S E  E  E  E  E  E     Q    Q    Q    Q       
------0-L--1--0----------|--------------------------|-----------------------||
--1----------------1-----|--0---0-L--0--L-----0-----|-----------------3-----||
--2---2-L--2--L----------|--0---0-L--0--L--5-----2--|--L-------------------*||
-------------------------|--------------------------|-------0----2---------*||
-------------------------|--------------------------|-----------------------||
--4---4-L--4--L-------4--|--5---5-L--5--L-----------|--0--------------------||


                        NH    NH                                
  E  S  S S S S S E     E     E  E     E  E  E  E  E  E  E  E   
---------------------<>12-----------|--------------------------|
--0------------------------<>12-----|-----3--L--0--------0-----|
--0-------0-0-L---0-----------------|-----4--L--0-----0--0--0--|
-----0h-2-------2-------------------|-----------------2-----2--|
------------------------------------|--0-----------0--------0--|
--5------------------------------5--|--------------------------|


                        NH    NH                                
  E  S  S S S S S E     E     E  E     E  E  E  E  E  E  E  E   
---------------------<>12-----------|-----------------0--------|
---------------------------<>12-----|-----0--1--0--1--0-----0--|
----------0-0-L---0-----------------|-----0--2--0--2--------0--|
-----0h-2-------2-------------------|--------------------------|
--2------------------------------2--|--3-----3-----3-----3-----|
------------------------------------|--------------------------|


                        NH    NH                                
  E  S  S S S S S E     E     E  E     E  E  E  E  E  E  E  E   
---------------------<>12-----------|--------------------------|
--L------------------------<>12-----|-----3--L--0--------0-----|
--L-------0-0-L---0-----------------|-----4--L--0-----0--0--0--|
-----0h-2-------2-------------------|-----------------2-----2--|
------------------------------------|--0-----------0--------0--|
--5------------------------------5--|--------------------------|


                        NH    NH                NH              
  E  S  S S S S S E     E     E  S  S    Q      Q    Q    Q     
---------------------<>12-------------|-------<>5---------0----|
---------------------------<>12--0h-1-|--3----<>5--------------|
----------0-0-L---0-------------------|--0----<>5--------------|
-----0h-2-------2---------------------|--0------0----2---------|
--2-----------------------------------|------------------------|
--------------------------------------|--0---------------------|


    NH                 
    W                  
---------------------||
--<>7----------------||
--<>7----------------||
--<>7----------------||
---------------------||
----5----------------||




Duration Legend
---------------
W - whole
H - half
Q - quarter
E - 8th
S - 16th
T - 32nd
X - 64th
. - note dotted
|-n-|  - n-tuplets


Tablature Legend
----------------
L - tied note
NH - natural harmonic
AH - artificial harmonic
h - hammer on
p - pull off
Da Segno - Go back to the measure marked Segno and play to the end
Login or Register to remove this ad.

5 comments on Star Light Zone

I like it ^-^

5

I like it ^-^

Great !

5

Great !

This is flat-out awesome.

5

This is flat-out awesome. Thanks for the tab, Kabuki!

Sweet!!! A little hard to

5

Sweet!!! A little hard to keep clean but I've only spent like 5-10 minutes with it, haha. Sightreading through all these tabs makes me feel like I should have them all down pat right away.

Really fun to play.

5

Really fun to play.