Labyrinth Zone (Sonic the Hedgehog) Bass Tab

Submitted: Nov 21, 2010 by soundsandstuff

0
Download | Listen
Game: Sonic the Hedgehog
Composer(s): Masato Nakamura
Style: Alternate picking, Transcription
Series: Sonic the Hedgehog

AutoScroll: Slow | Medium | Fast
Sonic the Hedgehog 1 - Labyrinth Zone
Platform: SEGA Genesis/Mega Drive
Developer: SEGA
Composed by: Masato Nakamura

Bass Guitar Tab Created By: soundsandstuff www.youtube.com/user/soundsandstuff
Completed on 10/24/09


Read: Before playing, tune the fourth string on your bass guitar down to C.

================================== A

G|------------------------------|
D|------------------------------|
A|------------------------------|
C|------------------2-----7--7--|

============================================= B

G|------------------------------|
D|------------------------------|
A|-------------0--2----0--------|
C|--0----4--7-------------7--4--|


G|------------------------------|
D|------------------------------|
A|-------------0--2----0--------|
C|--0----4--7-------------7--4--|


G|------------------------------|
D|-------------0--2----0--------|
A|-------0--3-------------3--0--|
C|--5---------------------------|


G|------------------------------|
D|-------------0--2----0--------|
A|-------0--3-------------3--0--|
C|--5---------------------------|


G|------------------------------|
D|------------------------------|
A|----------------3-3---3-------|
C|--0----4--7--4------7---6-----|

=========================================================== C

G|--------------------------------|
D|--------------------------------|
A|--------------------------------|
C|--5----5--4----4--2----2-0-2-4--|


G|--------------------------------|
D|--------------------------------|
A|------------------0----0-0------|
C|--5----5--4----4----------------|


G|--------------------------------|
D|--------------------------------|
A|--------------------------------|
C|--5----5--4----4--2----2-0-2-4--|


G|--------------------------------|
D|--------------------------------|
A|----------1----1--3----3--------|
C|--5----5------------------7-----|

======================================================================= BB

G|------------------------------|
D|------------------------------|
A|-------------0--2----0--------|
C|--0----4--7-------------7--4--|


G|------------------------------|
D|------------------------------|
A|-------------0--2----0--------|
C|--0----4--7-------------7--4--|


G|------------------------------|
D|-------------0--2----0--------|
A|-------0--3-------------3--0--|
C|--5---------------------------|



G|------------------------------|
D|-------------0--2----0--------|
A|-------0--3-------------3--0--|
C|--5---------------------------|


G|------------------------------|
D|------------------------------|
A|----------------3-3---3-------|
C|--0----4--7--4------7---6-----|

======================================================================================= CC

G|--------------------------------|
D|--------------------------------|
A|--------------------------------|
C|--5----5--4----4--2----2-0-2-4--|


G|--------------------------------|
D|--------------------------------|
A|------------------0----0-0------|
C|--5----5--4----4----------------|


G|--------------------------------|
D|--------------------------------|
A|--------------------------------|
C|--5----5--4----4--2----2-0-2-4--|


G|--------------------------------|
D|--------------------------------|
A|----------1----1--3----3--------|
C|--5----5------------------7-----|

========================================================================================================== Repeat from Section B
Notes:

- Thank you for playing!
Login or Register to remove this ad.