Ads

Green Hill Zone (Sonic the Hedgehog) Guitar Tab

Submitted: May 06, 2012 by natenmn (Last updated: May 06, 2012)

5
Average: 5 (8 votes)
Download | Listen
Game: Sonic the Hedgehog
Composer(s): Masato Nakamura
Style: Arrangement, Fingerstyle, Natural harmonics, Percussion
Series: Sonic the Hedgehog

AutoScroll: Slow | Medium | Fast
                     Green Hill Zone - Sonic the Hedgehog
                                Masato Nakamura                         
                        (Arranged by Nathan Nordstrom)


Tab: Nathan Nordstrom
5/06/2012


                                         
Acoustic Guitar 1 (Capo 5)


    4/4 140bpm

                                          ^                        
     S S S S S S S S S S S S S  S S  S    E  E  E  E  E  E  E  E   
E||--0---0---2---2---3---3---5p-2-5p-2-|--2--------0--------2-----|
B||----1---1---3---3---5---5-----------|--3--------1--------3-----|
G||------------------------------------|-----0--L--0-----0-----0--|
D||------------------------------------|--------------------------|
A||--------------------------0---------|--------------------------|
E||--0-------2-------3-----------------|--3-----x-----3-----3-----|


                             ^                       
  E  E  E  E  E  E  E  E     E  E  E  E  E  E  Q     
-----0--------2-----0-----|--3--------2--------0----|
-----1--------3-----1-----|--5--------3--------1----|
--L--0-----0-----0-----0--|-----0--L--0-----0-------|
--------------------------|-------------------------|
--------------------------|-------------------------|
--x-----3-----3-----3-----|--3-----x-----3-----3----|


                             ^                        
  E  E  E  E  E  E  E  E     E  E  E  E  E  E  E  E   
--------------------------|--0--------2--------3-----|
--------------------------|--1--------3--------5-----|
--0--0--------------------|-----0--L--0-----0-----0--|
--0-----2--2--3--3--4--4--|--------------------------|
--------2-----3-----4-----|--------------------------|
--3-----0-----1-----2-----|--3-----x-----3-----3-----|


  ^                          ^                       
  E  E  E  E  E  E  E  E     E  E  E  E  E  E  Q     
--0--------2--------3-----|--3--------2-------------|
--1--------3--------5-----|--5--------3-------------|
-----0--L--0-----0-----0--|-----0--L--0-----0-------|
--------------------------|-------------------------|
--------------------------|-------------------------|
--3-----x-----3-----3-----|--3-----x-----3-----3----|


                             Segno

                               ^          ^            
  Q    E  E  E  E  E   E       E  E  Q    E  E  E  E   
--------------------------||--------------3--------3--|
--------------------------||---0----------5--5--L-----|
--------------------------||*--0-----0----4--4--L-----|
--------------------------||*--------2----------------|
-------------------0h--2--||---3--3-------------x--3--|
--3----x--3--3--3---------||--------------------------|


                               ^           ^            
  E  E  E  Q    S S  E   E     E  E  E  E  E  E  E  E   
--2-----3--2------0h-3p--0--|-----------0--7--5--L--3--|
--3--------3----3-----------|--0-----------8--5--L-----|
-----0-----0------0h-2p--0--|--0-----0-----7-----------|
----------------2-----------|--------2-----------------|
--2--------2----------------|--3--3--------------x--3--|
----------------------------|--------------------------|


                           S     ^          ^            
  E  E  E  Q    S S  E     E     E  E  Q    E  E  E  E   
--2-----3--2------0h-3--------|-------------3--------3--|
--3--------3----3-------<>12--|--0----------5--5--L-----|
-----2-----2------0h-2--<>12--|--0-----0----4--4--L-----|
----------------2-------<>12--|--------2----------------|
--2--------2------------------|--3--3-------------x--3--|
------------------------------|-------------------------|


                               ^           ^            
  E  E  E  Q    S S  E   E     E  E  E  E  E  E  E  E   
--2-----3--2------0h-3p--0--|-----------0--0--------0--|
--3--------3----3-----------|--------------1--1--L-----|
-----0-----0------0h-2p--0--|--0-----------0--0--L-----|
----------------2-----------|--2-----2-----------------|
--2--------2----------------|--------3-----------x--0--|
----------------------------|--5--5--------------------|


  E  E  E  Q    E  E  E       E  E  E  Q    E  E  E   
--------------------------||-------------------------|
--3-----5--3----------0---||--3-----5--3-------------|
--4--------4----0--2-----*||--4--------4-------------|
-----5-----5-------------*||-----5-----5-------------|
--------------------------||----------------------2--|
--3--------3--------------||--3--------3----3--3-----|


  ^                                                   
  E  E  E  E  E  E  E  E     E  E  E  E  E  E  E  E   
--1--------0--------------|--------------------------|
--1-----------------3-----|-----1--------0--------0--|
--2-----2-----------2-----|-----------------0--2-----|
-----3-----3-----3-----3--|-----3-----3--------------|
--3-----------3-----------|--3-----3-----------------|
--------------------------|--------------1-----1-----|


                                            Da Coda

  ^                                                   
  E  E  E  E  E  E  E  E     E  E  E  E  E  E  E  E   
--0--------2--------3-----|-----5--------7--------7--|
--0-----------------------|-----------------8--8-----|
--0-----0-----------0-----|--------------------------|
-----2-----2-----2-----2--|-----2-----2--------------|
--2-----------2-----------|--2-----2-----------------|
--------------------------|--------------0-----0-----|


  ^                                                    
  E  E  E  E  E  E  E  E     E  E  E  E  E   E  E  E   
--------------------------|---------------------------|
--4--------3--------1-----|---------------------------|
--3-----0-----------0-----|-----3--------2p--0--3--2--|
-----1-----1-----1-----1--|-----1-----1---------------|
--1-----------1-----------|--1-----1------------------|
--------------------------|--------------3------3-----|


                                        D.S. al Coda

  E  E  E  E  E  E  E  E     E  E  E  E   E  E  E  E   
--------0-----------0--7--|--L--7--8--7--10--7--7-----|
-----3-----3-----3--------|------------------------8--|
-----------2--------------|---------------0-----------|
--0-----------0-----0-----|---------------------------|
--------------------------|--------7------------------|
--------------------------|---------------------7-----|


 Coda                       Slow Tempo---------------

  ^                                                    
  E  E  E  E  E  E  E  E     E  E  E  E  E   E  E  E   
--------------------------|---------------------------|
--4--------3--------1-----|---------------------------|
--3-----0-----------0-----|-----3--------2p--0--3--2--|
-----1-----1-----1-----1--|-----1-----1---------------|
--1-----------1-----------|--1-----1------------------|
--------------------------|--------------3------3-----|


 Slow Tempo------------------------------------------

                                                   ^                       
  E  E  E  E  E  E  E  E     E  E  E  E   E  E  E  E     W                 
--------0-----------0--7--|--L--7--8--7--10--7--7-----|-------------------|
-----3-----3-----3--------|------------------------8--|--L----------------|
-----------2--------------|------------------------7--|--L----------------|
--0-----------0-----0-----|------------------------9--|--L----------------|
--------------------------|---------------------------|-------------------|
--------------------------|---------------------------|-------------------|


-----||
-----||
-----||
-----||
-----||
-----||




Duration Legend
---------------
W - whole
H - half
Q - quarter
E - 8th
S - 16th
T - 32nd
X - 64th
. - note dotted
|-n-|  - n-tuplets


Tablature Legend
----------------
L - tied note
x - dead note
g - grace note
(n) - ghost note
> - accentuded note
NH - natural harmonic
AH - artificial harmonic
TH - tapped harmonic
SH - semi harmonic
PH - pitch harmonic
h - hammer on
p - pull off
b - bend
br - bendRelease
pb - preBend
pbr - preBendRelease
brb - bendReleaseBend
\n/ - tremolo bar dip
\n - tremolo bar dive
-/n - tremolo bar Release up
/n\ - tremolo bar inverted dip
/n - tremolo bar return
-\n - tremolo bar Release down
S - shift slide
s - legato slide
/ -  slide into from below or out of upwards
\ -  slide into from above or out of downwards
~ - vibrato
W - wide vibrato
tr - trill
TP - tremolo picking
T - tapping
S - slap
P - pop
< - fade in
^ - brush up
v - brush down
Login or Register to remove this ad.

4 comments on Green Hill Zone

the ending is pretty homo bro

the ending is pretty homo bro

Nice arrangement

5

I like this game, it was probably the first game I played as kid with Genesis, & obviously that tune is great ! Isn't funny we published the tabs at the same moment ? c:

Thanks, Diralark. I liked

Thanks, Diralark. I liked your arrangement, too. I gave it 5 stars because I liked measures 18-25 a lot.

And you're right, it is funny that we posted them so closely. It is even more interesting because I briefly looked at Gori Fater's piano arrangement, whom you credited in your tab, to help me brainstorm some ideas for this one.

sounds pretty, maybe in 5

sounds pretty, maybe in 5 billion years I will be able to play it XD

EDIT: Also I really wish you had a working camera so we could see you play it. You make such delicious arrangements but so few people put up recordings of them ;-;