Ads

Angel Island Act 1 (Sonic the Hedgehog 3) Guitar Tab

Submitted: Sep 17, 2013 by Kenkiske

5
Average: 5 (1 vote)
Download | Listen
Game: Sonic the Hedgehog 3
Composer(s): Brad Buxer, Various Composers, Michael Jackson
Style: 2 or more instruments, Alternate picking, Transcription
Series: Sonic the Hedgehog

AutoScroll: Slow | Medium | Fast
Sonic The Hedheghog 3 - Angel Island Act 1

Tab By Kenkiske:

Intro Guitar [some quickly hammer-ons and pull-offs!] :

     12times               12 times                  [12x]       1st end
e||--------|-------------|---------|-----------5h6p5------|------8---6-5-6----------|
B||--8p5---|--10p6h10p6--|--11p8---|-10p6h10p6------8-8p5-|-------------------------|
G||--------|-------------|---------|----------------------|--5-5---5--5--------7-5~-|
D||--------|-------------|---------|----------------------|----------------5-8------|
A||--------|-------------|---------|----------------------|-------------------------|
E||--------|-------------|---------|----------------------|-------------------------|
   2nd end
|---8-8-8-8--|
|------------|
|------------|
|------------|
|------------|
|------------|


Bridge:
 Gtr 1:
      1#                    2#
e|------------------|------------------|
B|------------------|------------------|
G|------10-9--------|------10-9----7~~-|
D|----8------10-8~~-|----8------10-----|  X2
A|--8---------------|--8---------------|
E|------------------|------------------|

Gtr 2:

         1#                            2#
e||--------------------------|-----------------------------|
B||--------------------------|-----------------------------|
G||--14-15--15-15-15-15--14~-|--14-15--15-15-15-15--17-15~-| 
D||--------------------------|-----------------------------| x2
A||--------------------------|-----------------------------|
E||--------------------------|-----------------------------|

Solo:
 Gtr 1:

e||---------------------------------------------------------------|
B||---------------------------------------------------------------|
G||-------------15-15-15----14-------------------15-15-15--17-14~-|
D||--14-15-17------------17---15------14-15-17--------------------|
A||----------15------------------15~----------15------------------|
E||---------------------------------------------------------------|

|-----------------------------------------------------------------------||
|-----------------------------------------------------------------------||
|-------------15-15-15-15----14-------------------15-15-15--17-14-15-17-||
|--14-15-17---------------17---15------14-15-17-------------------------||
|----------15---------------------15~----------15-----------------------||
|-----------------------------------------------------------------------||

Gtr 2: [Some fills]:
           
           3x times
e|--20--18--20--18---|--20--18--20-|
B|----20--20--20--20-|----20--20---|
G|-------------------|-------------|
D|-------------------|-------------|
A|-------------------|-------------|
E|-------------------|-------------|

Outro:

Gtr 1 [fast]: 

e||--22-19-----------------20-19-----------------20-17-----------------19-17-----------------|
B||-------20-17-----------------20-17-----------------18-15-----------------18-15------------|
G||------------19-16-----------------17-16-----------------17-14-----------------16-14-------|
D||-----------------17-14-----------------17-14-----------------15-12-----------------15-12--|
A||------------------------------------------------------------------------------------------|
E||------------------------------------------------------------------------------------------|

|-------------------------------||
|-------20-18-17----------------||
|----17---------17----19-17-16--||
|--17-------------19~-----------||
|-------------------------------||
|-------------------------------||

0:59

e||-------------------------------------------------------------------------------13-17----17-22-25-|
B||----------------------------------------------------------------------15----15-------18----------|
G||---------------14--16-17---------------14--16-17-------------------14----14----------------------|
D||--14--14--15-17-----------14--14--15-17----------------12-15-12-15-------------------------------|
A||--15--15------------------15--15---------------------12------------------------------------------|
E||---------------------------------------------------13--------------------------------------------|

Repeat all until fade.


Please rate and comment.

Login or Register to remove this ad.