Ads

Flying Battery Zone Act 1 (Sonic and Knuckles) Guitar Tab

Submitted: Apr 23, 2021 by kensquared

5
Average: 5 (2 votes)
Download | Listen
Game: Sonic and Knuckles
Composer(s): Howard Drossin
Style: Arrangement, Fingerstyle
Series: Sonic the Hedgehog

AutoScroll: Slow | Medium | Fast
Flying Battery Zone - Act 1 
From Sonic and Knuckles

This is a simplified arrangement and my first attempt tabbing video game music.
I'm not sure if the timing is right, but hopefully everything is easy to understand. Please listen to the original track for reference.

Tuning: Drop D

4/4

      Q      Q	    Q     E.   S    E   E   E   E   E   E   S E  S
e||---0---------------------------|---------------------------------|
B||----------3------0-------------|---------------------------------|
G||*--0-------------------2----0--|-----0---2---4---2---0-----------|
D||*----------------4-------------|-----------------4-------2-0--2--|
A||----------------------------3L-|---------------------------------|
D||---2-------------0-------------|-----------------0---------------|

                                     
                                  1st ending _____________________
    E    Q     E   E   Q     E     E    Q     E    E    Q. 
e|------------------------------|---------------------------------||
B|-------0-------------1--------|-------2---------------1---------||
G|------------------------------|--------------------------------*||
D|--2--------------2------------|--2---------------2-------------*||
A|------------------------------|---------------------------------||
D|--2----------2---2---------2--|--2----------2----2--------------||


2nd ending______________________
    E    Q     E   E   E   E   E     E.  E.  E   Q.     S S   
e|-------------------------------||---------------------------------|
B|-------2-------------0---------||----------0L---------------------|
G|-------------------------2---0-||*-0------------------2p0---------|
D|--2--------------2-------------||*-----2--------------------------|
A|-------------------------------||--3-------3----3-----------------|
D|--2----------2---2-------------||---------------------------------|



   E.  E.  E   Q     E   E        E.  E.  E   E   E   E   E
e|------------------------------|---------------------------------|
B|------------------------------|-----------------1---0-----------|
G|-2----------------------------|---------2L--------------2-------|
D|-----4---0L--------4---2------|-1---4---------------------------|
A|------------------------------|---------------------------------|
D|-0-------0---0----------------|-1-------1---1-------------------|


1st ending _____________________  2nd ending ______________________
     Q     E   E   Q     Q         S S Q    E   E   E   E   S S
e|------------------------------||------------------------------|
B|------------------------------||-0---0------------------------|
G|---4-----2L------0-----------*||---2--------------------------|
D|-----------------------4-----*||------------------------------|
A|------------------------------||------------------------------|
D|---2---------2---0------------||-2--------2---2---2---2---2-2-|



     E   E   E   S S   E   E   Q
e|--------------------------------||
B|-------0---0---0-0---0---0L-----||
G|--------------------------------||
D|-------1---1---1-1---1---1L-----||
A|-------2---2---2-2---2---2L-----||
D|--------------------------------||
Login or Register to remove this ad.

2 comments on Flying Battery Zone Act 1

@kensquared

hey kensquared, i made a midi file to go with your tab. The second measure was over by 1/16th so i changed the dotted 8th note to an 8th. Did you want the rhythm fixed different? And did you make this with a tab program that can export midi?

Thank you so much! I just had

Thank you so much!
I just had a listen and it sounds exactly as intended. I tabbed this one manually using notepad but I have GP5 and once I'm more familiar with that I plan on using it going forward, so I'll definitely be able to export the midi to accompany future tabs.