Introduction (Snailiad) Guitar Tab

Submitted: Apr 02, 2012 by soundsandstuff

5
Average: 5 (2 votes)
Download | Listen
Game: Snailiad
Composer(s): Auriplane
Style: Arrangement, Fingerstyle

AutoScroll: Slow | Medium | Fast
Snailiad - Introduction 
Platform: PC
Composed by: Auriplane
Produced by: Auriplane

Electric Guitar Tab Created By: soundsandstuff channel www.youtube.com/user/soundsandstuff
Completed on 4/2/12

Standard Tuning


Part A
E|---------------------------|------------------------|---------------------------|
B|---------------------------|------------------------|---------------------------|
G|-----------------------1---|-------------------1----|---------2----1--------4---|
D|---------2----4---2--------|----------4-------------|-----2------------2--------|
A|-----2---------------------|------------------------|-0-------------------------|
E|-0-------------------------|-0----------------------|---------------------------|


E|------------------------------|------------------------|---------------------------------|
B|------------------------------|------------------------|---------------------------------|
G|------------------1-----------|--------------------1---|---------1-------2-p-1-----------|
D|-----2---2------------2---2---|------2----4---2--------|-------------------------2---2-L-|
A|-0----------------------------|------------------------|-----2-----------------------0-L-|
E|------------------------------|-0----------------------|-0-------------------------------|



				Part B
E|--------------------|--------|---------------------------|------------------------|
B|--------------------|--------|---------------------------|------------------------|
G|--------------------|--------|-----------------------1---|-------------------1----|
D|------------2-------|--------|---------2----4---2--------|----------4-------------|
A|------------0---4-L-|-4------|-----2---------------------|------------------------|
E|----------------5-L-|-5------|-0-------------------------|-0----------------------|


E|---------------------------|------------------------------|------------------------|
B|---------------------------|------------------------------|------------------------|
G|---------2----1--------4---|------------------2-p-1-------|--------------------1---|
D|-----2------------2--------|-----2---2--------2-------2---|------2----4---2--------|
A|-0-------------------------|-0----------------------------|------------------------|
E|---------------------------|------------------------------|-0----------------------|



									    Part C [email protected]_Y				
E|------------------------------|--------------------|--------------------|--------------------|
B|------------------------------|-2--------------5---|------------4-/-5---|-4------------------|
G|---------1-------2-/-4--------|--------------------|--------------------|----------4---------|
D|------------------------------|--------------------|--------------------|----------4-----4---|
A|-----2------------------------|-0--------------0---|--------------------|-2--------2---------|
E|-0----------------------------|--------------------|--------------------|--------------------|


E|---------------------------|-2------------------|-----------------2-h-4-p-2------|
B|---------0----4-/-5--------|--------------------|--------------------------------|
G|---------------------------|----------4---------|---------4----------------------|
D|-----4---------------------|----------2-----2---|-----2-------2------------------|
A|-2-------------------------|-0--------0---------|-0------------------------------|
E|---------------------------|--------------------|----------------------------4---|



							 Part D	
E|--------------------|---------------------------------|------------------------------|
B|-7------------------|---------------------7-----------|------------------------------|
G|-6--------4---------|-------------4-h-6-------6-/-4---|-4-------4---4------------4-/-|
D|----------4---------|-----4---6-----------------------|-----0-------0----5-------5-/-|
A|----------------4---|---------------------------------|------------------------------|
E|----------4---------|-4-------------------------------|-3-----------3--------3-------|


E|---------------------------|-----------------------------9---|-11-p-9--------------------------|
B|---------------------------|-------------------------12------|---------12----------------------|
G|-6--------------------9----|-8-----------8---9-/-11----------|-------------11--9-\-8-----------|
D|-7-------7---7-/--9--------|---------9-----------------------|-------------------------9-------|
A|---------------------------|---------------------------------|-----------------------------9---|
E|-----5---------------------|-7---7---------------------------|---------------------------------|


E|--------|
B|--------|
G|--------|
D|-9------|
A|-9------|
E|-0------| End
--------------------------------------------------------------------------------------------------------------


Legend: 

H - Hammer On
P - Pull Off
/ - Slide Up
\ - Slide Down
L - Tied Note
[email protected]_Y - [email protected]_V!!!

Thank you for playing!
Login or Register to remove this ad.

2 comments on Introduction

I love your arrangement

5

I love your arrangement because it's easy and, however, really beautiful, such as the original song.
And wonderful recording ! The electric guitar evokes perfectly the atmosphere of the introduction of the game : in space with stars which come and go.

hey thanks very much

hey thanks very much ForestMarth! yeah i tried to make it as playable as possible while keeping the feel and much of the voices of the original song, and i'm glad you like the recording i made lots of mistakes but i'm still learning this fingerstyle thing, and on an electric everything is amplified like all the scratches and plonks from moving around the strings and changing positions/fretting, that i dont think is as loud on an acoustic xD thanks again for the input!!