Ads

Unlimited Desire (Slayers) Guitar Tab

Submitted: Dec 22, 2010 by ericmjalbert (Last updated: Dec 24, 2010)

5
Average: 5 (3 votes)
Download | Listen
Game: Slayers
Composer(s): Hidetoshi Sato
Style: Arrangement, Fingerstyle

AutoScroll: Slow | Medium | Fast
           Unlimited Desire                                 


Name of song: Unlimited Desire
Name of anime: Slayers
Composer of song: Hidetoshi Satō
Name of tabber: Eric Jalbert
Date tab was made: Wednesday, December 22, 2010

Information: Here is my first tablature ever. It is playable, just be sure to more with 
            quick hands on those tricky parts. 

            Good Luck and Merry Christmas!



     Q    E  Q    Q    E     E  Q    Q    E  Q       Q    E  Q    Q    E   
E||---------------2-------|----------2-------2----|---------------2-------|
B||--0----3--2---------2--|--L--3---------0-------|-------3--2---------2--|
G||-----------------------|-----------------------|--2--------------------|
D||-----------------------|-----------------------|-----------------------|
A||-----------------------|-----------------------|-----------------------|
E||-----------------------|-----------------------|-----------------------|


  E  Q    Q    E  Q       Q    E  Q    Q    E     E  Q    Q    E  Q     
----------2-------2----|---------------2-------|----------2-------2----|
--L--3---------0-------|-------3--2---------2--|--L--3---------0-------|
-----------------------|--0--------------------|-----------------------|
-----------------------|-----------------------|-----------------------|
-----------------------|-----------------------|-----------------------|
-----------------------|-----------------------|-----------------------|


  Q    E  Q    Q    E     E  Q    Q    E  Q       Q    E  Q    E  E  E   
---------------2-------|----------2-------2----|---------------2--------|
-------3--2---------2--|--L--3---------0-------|--0----3--2----------2--|
--2--------------------|-----------------------|------------------------|
-----------------------|-----------------------|------------------------|
-----------------------|-----------------------|--2---------------2--2--|
-----------------------|-----------------------|------------------------|


  E  E  E  E  E  E  E  E     Q    E  Q    E  E  E     E  E  E  E  E  E  E  E   
-----------2--------2-----|---------------2--------|-----------2--------2-----|
--L--3-----------0--------|-------3--2----------2--|--L--3-----------0--------|
--------------------------|--2---------------------|--------------------------|
-----------0--2--0-----0--|------------------------|-----------0--2--0-----0--|
-----2--4-----------4-----|--0---------------0--0--|-----0--4-----------4-----|
--------------------------|------------------------|--------------------------|


  Q    E  Q    E  E  E     E  E  E  E  E  E  E  E     Q    E  Q    E  E  E   
---------------2--------|-----------2--------2-----|---------------2--------|
-------3--2----------2--|--L--3-----------0--------|-------3--2----------2--|
--0---------------------|--------------------------|--2---------------------|
------------------------|-----------0--2--0-----0--|------------------------|
------------------------|--------4-----------4-----|--0---------------0--1--|
--3---------------3--3--|-----3--------------------|------------------------|


  E  Q    Q    E  Q       H.           E  E     E  E  E  E  E  E  E  E   
----------2-------2----|---------------------|--------------------------|
--L--3---------0-------|--0------------------|--0-----------------------|
-----------------------|---------------------|--------2-----2-----0-----|
-----------------------|---------------------|-----------0--2--0-----0--|
--L--------------------|--2------------2--2--|-----2--4-----------4-----|
-----------------------|---------------------|--------------------------|


  H.           E  E     E  E  E  E  E  E  E  E     H.           E  E   
---------------------|--------------------------|---------------------|
---------------------|--------------------------|---------------------|
---------------------|--------------------------|--0------------------|
--L------------2-----|-----------0--2--0-----0--|---------------------|
--0------------0--0--|--L--0--4-----------4-----|---------------------|
---------------------|--------------------------|--3------------3--3--|


  E  E  E  E  E  E  E  E     H.           E  E     H.           Q     
--------------------------|---------------------|--------------------|
--------------------0--2--|--L------------5--2--|--L------------3----|
--0-----------0-----------|---------------------|--------------------|
--------2--0--2--0-----0--|---------------------|---------------0----|
--------4-----------4-----|--0------------0--1--|--L-----------------|
-----3--------------------|---------------------|--------------------|


  Q    E  E  E  E  E  E     Q    E  E  E  E  E  E     Q    E  E  E  E  E  E   
-------------------------|-------------------------|-------------------------|
--0----------------------|-------0--------------0--|--L----------------------|
-------------------------|--2-------2--------------|-------------------------|
----------0--------0-----|----------0-----4--0-----|----------0--------0-----|
--2----2--------2-----4--|--0----0--------0-----4--|--2----2--------2-----4--|
-------------------------|-------------------------|-------------------------|


  Q    E  E  E  E  E  E     Q    E  E  E  E  E  E     Q    E  E  E  E  E  E   
-------------------------|-------------------------|-------------------------|
--L----------------3-----|--0----------------------|-------0--------------0--|
-------------------------|-------------------------|--2-------2--------------|
----------0--------0-----|----------0--------0-----|----------0-----4--0-----|
--2----2--------2-----4--|--2----2--------2-----4--|--0----0--------0-----4--|
-------------------------|-------------------------|-------------------------|


  Q    E  E  E  E  E  E     Q    E  E  E  E  E  E     Q    E  Q    E  E  E   
-------------------------|-------------------0-----|--2-------0----------L--|
--L----------------------|--L----0-----3-----------|------------------------|
-------------------------|-------------------------|------------------------|
----------0--------0-----|-------------0--2--4-----|--4----4--2-------------|
--2----2--------2-----4--|--2----2--4-----------2--|---------------5--4--5--|
-------------------------|-------------------------|------------------------|


  Q    E  E  E  E  E  E     Q    E  E  Q    E  E     E  E  E  E  E  E  Q     
--L----------------0-----|--2---------------------|-------------------------|
-------------3-----------|-------2-----2-------0--|--L-----------------0----|
-------------------------|------------------2-----|-------------------------|
--4----4--2--------------|--2----2--0-------------|--------0----------------|
----------------5--4--5--|-------------4----0--2--|-----2-----4--2--0--2----|
-------------------------|------------------------|-------------------------|


  Q    E  Q    E  E  E     Q    E  Q    E  E  E     E  E  E  E  E  E  E  E   
------------------------|--0---------------------|--2-----2-----------2-----|
--3-------0-------3-----|------------------------|--------------3-----------|
------------------------|----------2----------L--|--------------------------|
--0----0-------------0--|--2----2----------0--2--|--4-----------0--2--4-----|
----------2----2--4-----|----------0----0--------|-----0--2--4-----------0--|
------------------------|------------------------|--------------------------|


  Q    E  Q    E  E  E     Q    E  E  E  E  E  E     E  E  E  E  E  E  E  E   
--2----0--0----------L--|--L----3-----2-----0-----|--0-----------------------|
------------------------|-------------------------|-----------3-----------L--|
------------------------|-------0-----------------|--------------------------|
--4----2----------------|--0-------2--4--0--2-----|--------------------------|
----------2----2--2--4--|----------------------4--|--2--2--2--2--2--2--2--2--|
------------------------|-------------------------|--------------------------|


  E  E  E  E  E  E  E  E     E  E  E  E  E  E  E  E   
--------------------------|--0--------2-----------L--|
--L-----------0-----3-----|--------------------------|
--------------------------|--------------------------|
--------------------------|--------------------------|
--2--2--2--2--2--2--2--2--|--0--0--0--0--0--0--0--0--|
--------------------------|--------------------------|


  E  E  E  E  E  E  E  E     E  E  E  E  E  E  E  E   
--L-----------------------|--0--------2-----------L--|
--------------0-----3-----|--------------------------|
--------------------------|--------------------------|
--------------------------|--------------------------|
--0--0--0--0--0--0--0--0--|--------------------------|
--------------------------|--3--3--3--3--3--3--3--3--|


  E  E  E  E  E  E  E  E     E  E  E  E  E  E  E  E   
--L-----2-----0-----------|--0--------2-----------L--|
--------------------3-----|--------------------------|
--------------------------|--------------------------|
--------------------------|--------------------------|
--------------------------|--0--0--0--0--0--0--0--0--|
--3--3--3--3--3--3--3--3--|--------------------------|


  E  E  E  E  E  E  E  E     E  E  E  E  E  E  E  E   
--L-----3-----2-----0-----|--0-----------------------|
--------------------------|-----------3-----------L--|
--------------------------|--------------------------|
--------------------------|--------4-----------4-----|
--1--1--1--1--1--1--1--1--|--2--2--2--2--2--2--2--2--|
--------------------------|--------------------------|


  E  E  E  E  E  E  E  E     E  E  E  E  E  E  E  E   
--------------------------|--0--------2-----------L--|
--L-----------0-----3-----|--------------------------|
--------------------------|--------------------------|
--------4-----------4-----|--------4-----------4-----|
--2--2--2--2--2--2--2--2--|--0--0--0--0--0--0--0--0--|
--------------------------|--------------------------|


  E  E  E  E  E  E  E  E     E  E  E  E  E  E  E  E   
--L-----------------------|--0--------2-----------L--|
--------------0-----3-----|--------------------------|
--------------------------|--------------------------|
--------4-----------4-----|--------4-----------4-----|
--0--0--0--0--0--0--0--0--|--------------------------|
--------------------------|--3--3--3--3--3--3--3--3--|


  E  E  E  E  E  E  E  E     E  E  E  E  E  E  E  E   
--L-----2-----0--------2--|--L--------L-----------L--|
--------------------3-----|--------------------------|
--------------------------|--------------------------|
--------4-----------4-----|--------4-----------4-----|
--------------------------|--0--0--0--0--0--0--0--0--|
--3--3--3--3--3--3--3--3--|--------------------------|


  E  E  E  E  E  E  E  E     E  E  E  E  E  E  E  E   
--L-----------4-----6-----|--7-----------------0-----|
--------------------------|--0-----------0--------0--|
--------------------------|-----------1--------1-----|
--------4-----------4-----|--------2--------2--------|
--------------------------|-----2--------------------|
--6--6--6--6--6--6--6--6--|--------------------------|


  E  E  E  E  E  E  E  E     E  E  E  E  E  E  E  E   
--0-----2-----4-----7--6--|--L-----------4-----6-----|
--0-----------0--------0--|--------------------------|
-----------1--------------|--3-----------3-----------|
--------2--------2--6-----|--------1--4-----4--------|
-----2--------------------|-----1--------------6--1--|
--------------------------|--------------------------|


  E  E  E  E  E  E  E  E     E  E  E  E  E  E  E  E   
--4--------2-----------L--|--4-----------------0-----|
--------------------------|--------------------------|
-----------1--------------|--------------1-----------|
--------2-----------1--4--|--2--------2-----------2--|
-----4-----------2--------|--------4-----------4-----|
--4-----------2-----------|-----4-----------4--------|


  E  E  E  E  E  E  E  E     E  E  E  E  E  E  E  E   
--0-----2-----4-----7--6--|--L-----------4-----6-----|
--------------------------|-----------------0-----0--|
--------------3-----------|--------------------------|
--2--------2--------------|--4--1-----1--4-----4-----|
-----1--4--------1--4--7--|--------2-----------------|
--------------------------|--------------------------|


  E  E  E  E  E  E  E  E     E  E  E  E  E  E  E  E   
--6--------7-----------L--|--7-----------------0-----|
-----0--4--0-----2--------|--0-----------0--------0--|
--------------3-----3-----|-----------1--------1-----|
--6--------------------4--|--------2--------2--------|
--------------------------|-----2--------------------|
--------------------------|--------------------------|


  E  E  E  E  E  E  E  E     E  E  E  E  E  E  E  E   
--0-----2-----4-----7--6--|--L-----------4-----6-----|
--0-----------0--------0--|--------------------------|
-----------1--------------|--3-----------3-----------|
--------2--------2--6-----|--------1--4-----4--------|
-----2--------------------|-----1--------------6--1--|
--------------------------|--------------------------|


  E  E  E  E  E  E  E  E     E  E  E  E  E  E  E  E   
--4--------2-----------L--|--4-----------------0-----|
--------------------------|--------------------------|
-----------1--------------|--------------1-----------|
--------2-----------1--4--|--2--------2-----------2--|
-----4-----------2--------|--------4-----------4-----|
--4-----------2-----------|-----4-----------4--------|


  E  E  E  E  E  E  E  E     E  E  E  E  E  E  E  E   
--0-----2-----4-----7--6--|--L-----------4-----6-----|
--------------------------|-----------------0-----0--|
--------------3-----------|--------------------------|
--2--------2--------------|--4--1-----1--4-----4-----|
-----1--4--------1--4--7--|--------2-----------------|
--------------------------|--------------------------|


                                      ^             
  E  E  E  E  E  E  E  E     E  E  E  H        E    
--6--------7-----------L--|--L-----2--2--------L--||
-----0--4--0-----2--------|-----2-----2--------L--||
--------------3-----3-----|--3--------3--------L--||
--6--------------------4--|-----------4--------L--||
--------------------------|-----------------------||
--------------------------|-----------------------||




Duration Legend
---------------
W - whole
H - half
Q - quarter
E - 8th
S - 16th
T - 32nd
X - 64th
. - note dotted
|-n-|  - n-tuplets


Tablature Legend
----------------
L - tied note
x - dead note
g - grace note
(n) - ghost note
> - accentuded note
NH - natural harmonic
AH - artificial harmonic
TH - tapped harmonic
SH - semi harmonic
PH - pitch harmonic
h - hammer on
p - pull off
b - bend
br - bendRelease
pb - preBend
pbr - preBendRelease
brb - bendReleaseBend
\n/ - tremolo bar dip
\n - tremolo bar dive
-/n - tremolo bar Release up
/n\ - tremolo bar inverted dip
/n - tremolo bar return
-\n - tremolo bar Release down
S - shift slide
s - legato slide
/ -  slide into from below or out of upwards
\ -  slide into from above or out of downwards
~ - vibrato
W - wide vibrato
tr - trill
TP - tremolo picking
T - tapping
S - slap
P - pop
< - fade in
^ - brush up
v - brush down
Login or Register to remove this ad.