Ads

Camp (Sinjid: Shadow of the Warrior) Guitar Tab

Submitted: Jun 17, 2017 by Ryzx

5
Average: 5 (4 votes)
Download | Listen
Game: Sinjid: Shadow of the Warrior
Composer(s): Krinn
Style: Transcription

AutoScroll: Slow | Medium | Fast
Sinjid: Shadow of the Warrior - Camp Music

e-------------------------------------------------------------------------|
B-----8-5-6-----6-5---5---5-----------------------------------------------|
G-7---------7-------7-------7---------------------------------------------|
D-----------------------------8-7---7-5-------------------5-7-8-----------|
A---------------------------------------8-7---4-5-7-8---8-----------------|
E-------------------------------------------------------------------------|

e-------------------------------------------------------------------------|
B-------------5-6-----8-5-6-----6-5---5---5---------------------8-6-------|
G-----------------7---------7-------7-------7---------------6-7-----------|
D-5---7-5---5---------------------------------8-7---7-5---7---------------|
A---8---------------------------------------------------8-----------------|
E-------------------------------------------------------------------------|

e-------------5-----------------------------------------------------------|
B-5-6-----5-6---8-----5-6-------------------------------------------------|
G-----7-------------------7-----------------------------------------------|
D-------------------7-----------------------------------------------------|
A-------------------------------------------------------------------------|
E-------------------------------------------------------------------------|
Login or Register to remove this ad.

2 comments on Camp

Ohhhh

5

Ohhh Nice ! i like this thank you for reminding me this beautiful sound and this beautiful game.
finally some original tabs and not the usual one returning from final fantasy....
I hope to see more tabs of this game from you ! keep going

I'm doing the battle music,

I'm doing the battle music, look for it soon.