Ads

Music Box (Silent Hill 2) Guitar Tab

Submitted: Jul 06, 2012 by daniel guerra c...

5
Average: 5 (1 vote)
Download | Listen
Game: Silent Hill 2
Composer(s): Akira Yamaoka
Style: 2 or more instruments, Transcription

Click here for a video example.

AutoScroll: Slow | Medium | Fast
Song : Music Box
Game : Silent Hill 2
Cover: Daniel Guerra Caballero
Video: http://youtu.be/mj1YSl2Budc
Date : June, 2012
Mail : [email protected]
web  : http://danielguerracaballero.blogspot.com

1st Guitar
1---10-10-11-10----10-10-11-13-11-10----10-10-11-10-13-11-10---10-----
2-8--------------8--------------------8----------------------8--------
3---------------------------------------------------------------------
4---------------------------------------------------------------------
5---------------------------------------------------------------------
6---------------------------------------------------------------------

1-12-10----12-10----12-13-15-13--10-12-10----12-10-----10----------10-
2-------10-------10-----------------------10--------10----10-11-13----
3---------------------------------------------------------------------
4---------------------------------------------------------------------
5---------------------------------------------------------------------
6---------------------------------------------------------------------

1---10-10-11-10----10-10-11-13-11-10----10-10-11-10-13-11-10---10-----
2----------------8--------------------8----------------------8--------
3---------------------------------------------------------------------
4---------------------------------------------------------------------
5---------------------------------------------------------------------
6---------------------------------------------------------------------

1-12-10----12-10----12-13-15-13--10-12-10----12-10-----10----------10-
2-------10-------10-----------------------10--------10----10-11-13----
3---------------------------------------------------------------------
4---------------------------------------------------------------------
5---------------------------------------------------------------------
6---------------------------------------------------------------------

1-10-10-11-10---10-10-11-13-11----------------------------------------
2-------------8-----------------------8-------------------------------
3---------------------------------------------------------------------
4---------------------------------------------------------------------
5---------------------------------------------------------------------
6---------------------------------------------------------------------

2nd Guitar
1-------------------------------------------------------
2---------------------------------------3---------------
3-------3-----------3-----------3-----3-----------------
4---5-5---------5-5---------5-5---5-------5-------------
5-5-------5---5-------5---5---------5-------5-----------
6-------------------------------------------------------

1-------------------------------------------------------
2-3-----3--------3--3-3------3-------3------------------
3-----2------2-------------2-------2-------2----2----2--
4---3-----3----3----------------3-------3----3-----3----
5-------------------------------------------------------
6-------------------------------------------------------

3rd Guitar
1--6---6---6---6---6----6---6---6---6-
2-8--8---8---8---8----8---8---8---8---
3-------------------------------------
4-------------------------------------
5-------------------------------------
6-------------------------------------

1-6---6---6---6---6---6---6---6---6---
2---7---7---7---7---7---7---7---7---7-
3-------------------------------------
4-------------------------------------
5-------------------------------------
6-------------------------------------
Login or Register to remove this ad.