Ads

Rough Diamonds (Shokugeki no Souma) Guitar Tab

Submitted: Jul 15, 2018 by ecchidori

5
Average: 5 (1 vote)
Download | Listen
Game: Shokugeki no Souma
Composer(s): Tatsuya Kato
Style: 2 or more instruments, Tapping, Transcription

Click here for a video example.

AutoScroll: Slow | Medium | Fast
Guitar 1

     W                   W                   W                   E   E    E   E   E   E   E   E   
E||-------------------|-------------------|-------------------|----------------------------------|
B||-------------------|-------------------|-------------------|-----14p--13----------------------|
G||-------------------|-------------------|-------------------|--------------15--15--15--13--15--|
D||-------------------|-------------------|-------------------|----------------------------------|
A||-------------------|-------------------|-------------------|----------------------------------|
E||-------------------|-------------------|-------------------|----------------------------------|


  E   E    E   E   E   E   E   E     E   E    E   E   E   E   E   E   
----------------------------------|----------------------------------|
-----14p--13----------------------|-----14p--13----------------------|
--------------15--15--15--13--15--|--------------15--15--15--13--15--|
----------------------------------|----------------------------------|
----------------------------------|----------------------------------|
----------------------------------|----------------------------------|


  E   E    E   E   E   E   E   E     E   E    E   E   E   E   E   E   
----------------------------------|----------------------------------|
-----14p--13----------13--14--16--|-----14p--13----------------------|
--------------15--15--------------|--------------15--15--15--13--15--|
----------------------------------|----------------------------------|
----------------------------------|----------------------------------|
----------------------------------|----------------------------------|


  E   E    E   E   E   E   E   E     E   E    E   E   E   E   E   E     E   E   E   E  E  E  E  E   
----------------------------------|----------------------------------|-----------------------------|
-----14p--13----------------------|-----14p--13----------------------|-----14--13------------------|
--------------15--15--15--13--15--|--------------15--15--15--13--15--|-------------13--------------|
----------------------------------|----------------------------------|-----------------------------|
----------------------------------|----------------------------------|-----------------------------|
----------------------------------|----------------------------------|-----------------------------|


  W                   W                   W                   W                   W                 
-------------------|-------------------|-------------------|-------------------|-------------------|
-------------------|-------------------|-------------------|-------------------|-------------------|
-------------------|-------------------|-------------------|-------------------|-------------------|
-------------------|-------------------|-------------------|-------------------|-------------------|
-------------------|-------------------|-------------------|-------------------|-------------------|
-------------------|-------------------|-------------------|-------------------|-------------------|


  W                   W                   W                   W                   W                 
-------------------|-------------------|-------------------|-------------------|-------------------|
-------------------|-------------------|-------------------|-------------------|-------------------|
-------------------|-------------------|-------------------|-------------------|-------------------|
-------------------|-------------------|-------------------|-------------------|-------------------|
-------------------|-------------------|-------------------|-------------------|-------------------|
-------------------|-------------------|-------------------|-------------------|-------------------|


  W                   W                   W                   W                   W                 
-------------------|-------------------|-------------------|-------------------|-------------------|
-------------------|-------------------|-------------------|-------------------|-------------------|
-------------------|-------------------|-------------------|-------------------|-------------------|
-------------------|-------------------|-------------------|-------------------|-------------------|
-------------------|-------------------|-------------------|-------------------|-------------------|
-------------------|-------------------|-------------------|-------------------|-------------------|


  W                   W                   W                   W                   W                 
-------------------|-------------------|-------------------|-------------------|-------------------|
-------------------|-------------------|-------------------|-------------------|-------------------|
-------------------|-------------------|-------------------|-------------------|-------------------|
-------------------|-------------------|-------------------|-------------------|-------------------|
-------------------|-------------------|-------------------|-------------------|-------------------|
-------------------|-------------------|-------------------|-------------------|-------------------|


  W                   W                   W                   W                   W                 
-------------------|-------------------|-------------------|-------------------|-------------------|
-------------------|-------------------|-------------------|-------------------|-------------------|
-------------------|-------------------|-------------------|-------------------|-------------------|
-------------------|-------------------|-------------------|-------------------|-------------------|
-------------------|-------------------|-------------------|-------------------|-------------------|
-------------------|-------------------|-------------------|-------------------|-------------------|


  W                   W                   W                   W                   W                 
-------------------|-------------------|-------------------|-------------------|-------------------|
-------------------|-------------------|-------------------|-------------------|-------------------|
-------------------|-------------------|-------------------|-------------------|-------------------|
-------------------|-------------------|-------------------|-------------------|-------------------|
-------------------|-------------------|-------------------|-------------------|-------------------|
-------------------|-------------------|-------------------|-------------------|-------------------|


  W                   W                   W                   W                   W                 
-------------------|-------------------|-------------------|-------------------|-------------------|
-------------------|-------------------|-------------------|-------------------|-------------------|
-------------------|-------------------|-------------------|-------------------|-------------------|
-------------------|-------------------|-------------------|-------------------|-------------------|
-------------------|-------------------|-------------------|-------------------|-------------------|
-------------------|-------------------|-------------------|-------------------|-------------------|


  W                   W                   W                   W                   W                 
-------------------|-------------------|-------------------|-------------------|-------------------|
-------------------|-------------------|-------------------|-------------------|-------------------|
-------------------|-------------------|-------------------|-------------------|-------------------|
-------------------|-------------------|-------------------|-------------------|-------------------|
-------------------|-------------------|-------------------|-------------------|-------------------|
-------------------|-------------------|-------------------|-------------------|-------------------|


  W                   W                   W                   W                   W                 
-------------------|-------------------|-------------------|-------------------|-------------------|
-------------------|-------------------|-------------------|-------------------|-------------------|
-------------------|-------------------|-------------------|-------------------|-------------------|
-------------------|-------------------|-------------------|-------------------|-------------------|
-------------------|-------------------|-------------------|-------------------|-------------------|
-------------------|-------------------|-------------------|-------------------|-------------------|


  W                   W                   W                   W                 
-------------------|-------------------|-------------------|-------------------|
-------------------|-------------------|-------------------|-------------------|
-------------------|-------------------|-------------------|-------------------|
-------------------|-------------------|-------------------|-------------------|
-------------------|-------------------|-------------------|-------------------|
-------------------|-------------------|-------------------|-------------------|


  W                W                Q       E   E    E   E   E   E   E   E   
-----------------------------------------|----------------------------------|
-----------------------------------------|-----14p--13----------------------|
-----------------------------------------|--------------15--15--15--13--15--|
-----------------------------------------|----------------------------------|
-----------------------------------------|----------------------------------|
-----------------------------------------|----------------------------------|


  E   E    E   E   E   E   E   E     E   E    E   E   E   E   E   E   
----------------------------------|----------------------------------|
-----14p--13----------------------|-----14p--13----------------------|
--------------15--15--15--13--15--|--------------15--15--15--13--15--|
----------------------------------|----------------------------------|
----------------------------------|----------------------------------|
----------------------------------|----------------------------------|


  E   E    E   E   E   E   E   E     E   E    E   E   E   E   E   E   
----------------------------------|----------------------------------|
-----14p--13----------13--14--16--|-----14p--13----------------------|
--------------15--15--------------|--------------15--15--15--13--15--|
----------------------------------|----------------------------------|
----------------------------------|----------------------------------|
----------------------------------|----------------------------------|


  E   E    E   E   E   E   E   E     E   E    E   E   E   E   E   E     E   E    E   Q    Q    E   
----------------------------------|----------------------------------|----------------------------|
-----14p--13----------------------|-----14p--13----------------------|-----14p--13----------------|
--------------15--15--15--13--15--|--------------15--15--15--13--15--|--------------13------------|
----------------------------------|----------------------------------|----------------------------|
----------------------------------|----------------------------------|----------------------------|
----------------------------------|----------------------------------|----------------------------|


  W                   W                   W                   W                   W                 
-------------------|-------------------|-------------------|-------------------|-------------------|
-------------------|-------------------|-------------------|-------------------|-------------------|
-------------------|-------------------|-------------------|-------------------|-------------------|
-------------------|-------------------|-------------------|-------------------|-------------------|
-------------------|-------------------|-------------------|-------------------|-------------------|
-------------------|-------------------|-------------------|-------------------|-------------------|


  W                   W                   W                   W                   W                 
-------------------|-------------------|-------------------|-------------------|-------------------|
-------------------|-------------------|-------------------|-------------------|-------------------|
-------------------|-------------------|-------------------|-------------------|-------------------|
-------------------|-------------------|-------------------|-------------------|-------------------|
-------------------|-------------------|-------------------|-------------------|-------------------|
-------------------|-------------------|-------------------|-------------------|-------------------|


  W                   W                   W                   W                   W                 
-------------------|-------------------|-------------------|-------------------|-------------------|
-------------------|-------------------|-------------------|-------------------|-------------------|
-------------------|-------------------|-------------------|-------------------|-------------------|
-------------------|-------------------|-------------------|-------------------|-------------------|
-------------------|-------------------|-------------------|-------------------|-------------------|
-------------------|-------------------|-------------------|-------------------|-------------------|


  W                   W                   W                   W                   W                 
-------------------|-------------------|-------------------|-------------------|-------------------|
-------------------|-------------------|-------------------|-------------------|-------------------|
-------------------|-------------------|-------------------|-------------------|-------------------|
-------------------|-------------------|-------------------|-------------------|-------------------|
-------------------|-------------------|-------------------|-------------------|-------------------|
-------------------|-------------------|-------------------|-------------------|-------------------|


  W                   W                   W                   W                   W                 
-------------------|-------------------|-------------------|-------------------|-------------------|
-------------------|-------------------|-------------------|-------------------|-------------------|
-------------------|-------------------|-------------------|-------------------|-------------------|
-------------------|-------------------|-------------------|-------------------|-------------------|
-------------------|-------------------|-------------------|-------------------|-------------------|
-------------------|-------------------|-------------------|-------------------|-------------------|


  W                   W                   W                   W                   W                 
-------------------|-------------------|-------------------|-------------------|-------------------|
-------------------|-------------------|-------------------|-------------------|-------------------|
-------------------|-------------------|-------------------|-------------------|-------------------|
-------------------|-------------------|-------------------|-------------------|-------------------|
-------------------|-------------------|-------------------|-------------------|-------------------|
-------------------|-------------------|-------------------|-------------------|-------------------|


  W                   W                   W                   W                   W                 
-------------------|-------------------|-------------------|-------------------|-------------------|
-------------------|-------------------|-------------------|-------------------|-------------------|
-------------------|-------------------|-------------------|-------------------|-------------------|
-------------------|-------------------|-------------------|-------------------|-------------------|
-------------------|-------------------|-------------------|-------------------|-------------------|
-------------------|-------------------|-------------------|-------------------|-------------------|


  W                   W                   W                   W                   W                 
-------------------|-------------------|-------------------|-------------------|-------------------|
-------------------|-------------------|-------------------|-------------------|-------------------|
-------------------|-------------------|-------------------|-------------------|-------------------|
-------------------|-------------------|-------------------|-------------------|-------------------|
-------------------|-------------------|-------------------|-------------------|-------------------|
-------------------|-------------------|-------------------|-------------------|-------------------|


  W                   W                   W                   W                   W                 
-------------------|-------------------|-------------------|-------------------|-------------------|
-------------------|-------------------|-------------------|-------------------|-------------------|
-------------------|-------------------|-------------------|-------------------|-------------------|
-------------------|-------------------|-------------------|-------------------|-------------------|
-------------------|-------------------|-------------------|-------------------|-------------------|
-------------------|-------------------|-------------------|-------------------|-------------------|


  W                   W                   W                   W                   W                 
-------------------|-------------------|-------------------|-------------------|-------------------|
-------------------|-------------------|-------------------|-------------------|-------------------|
-------------------|-------------------|-------------------|-------------------|-------------------|
-------------------|-------------------|-------------------|-------------------|-------------------|
-------------------|-------------------|-------------------|-------------------|-------------------|
-------------------|-------------------|-------------------|-------------------|-------------------|


  H.              H.              H.              H.              H.              H.            
---------------|---------------|---------------|---------------|---------------|---------------|
---------------|---------------|---------------|---------------|---------------|---------------|
---------------|---------------|---------------|---------------|---------------|---------------|
---------------|---------------|---------------|---------------|---------------|---------------|
---------------|---------------|---------------|---------------|---------------|---------------|
---------------|---------------|---------------|---------------|---------------|---------------|


  H.              H.              H.              H.              H.              H.            
---------------|---------------|---------------|---------------|---------------|---------------|
---------------|---------------|---------------|---------------|---------------|---------------|
---------------|---------------|---------------|---------------|---------------|---------------|
---------------|---------------|---------------|---------------|---------------|---------------|
---------------|---------------|---------------|---------------|---------------|---------------|
---------------|---------------|---------------|---------------|---------------|---------------|


  H.              H.              H.              H.           Q       Q     E  Q     E  Q      
---------------|---------------|---------------|--------------------|--------------------------|
---------------|---------------|---------------|--------------------|--6-----L--6-----L--6-----|
---------------|---------------|---------------|--------------------|--8b-------8b-------8b----|
---------------|---------------|---------------|--------------------|--------------------------|
---------------|---------------|---------------|--------------------|--------------------------|
---------------|---------------|---------------|--------------------|--------------------------|


  E  E  E  E  Q    E  E     E  E  E  E  E  E  E  E     E  E  E  E  E  E  E  E   
-------------------------|--------------------------|-----------------------4--|
-------------------------|--------------------------|--------------------------|
--L--8--6--8--6----6--6--|--------------------------|--------------------------|
-------------------------|--------------------------|--------------------------|
-------------------------|--------4-----4--6--4-----|--4--6--4--8-----8--------|
-------------------------|--4--6-----6-----------6--|--------------------------|


   |--3--|   |--3--|   |--3--|   |--3--|   |--3--|   |--3--|   |--3--|   |--3--|  
   S  S  S   S  S  S   S  S  S   S  S  S   S  S  S   S  S  S   S  S  S   S  S  S  
--13p-1h-4h-13p-1h-4h-13p-1h-4h-13p-1h-4h-12p-1h-4h-12p-1h-4h-12p-1h-4h-12p-1h-4-|
---------------------------------------------------------------------------------|
---------------------------------------------------------------------------------|
---------------------------------------------------------------------------------|
---------------------------------------------------------------------------------|
---------------------------------------------------------------------------------|


   |--3--|   |--3--|   |--3--|  |--3--|  |--3--|  |--3-|  |--3--|  |--3--|  
   S  S  S   S  S  S   S  S  S  S  S  S  S  S  S  S  S S  S  S  S  S  S  S  
--11p-1h-4h-11p-1h-4h-11p-1h-4-11p-1h-4h-9p-1h-4h-9p-1-4h-9p-1h-4h-9p-1h-4-|
---------------------------------------------------------------------------|
---------------------------------------------------------------------------|
---------------------------------------------------------------------------|
---------------------------------------------------------------------------|
---------------------------------------------------------------------------|


  S S S S S S S S Q    E   E     Q    Q    E  E  E  E      H          E   E   E   E   
--4-4-4-4-4-4-4-4-6----6S--8--|--L----8----9--8--9-----|-----------------11----------|
------------------------------|------------------------|-------------------------13--|
------------------------------|------------------------|--10~---------L------10------|
------------------------------|------------------------|-----------------------------|
------------------------------|------------------------|-----------------------------|
------------------------------|------------------------|-----------------------------|


   E   E   E   Q      E   Q        E   E   E   E   E   S  S  E   E      E   E   E   Q    Q    E   
-------------------------------|------------------------------------|----------------------------|
------11-----------------------|------------------------------------|----------------------------|
--10------10--13b-----L--------|------------------------------------|----------------------------|
-------------------------13----|--10--11--13--11--10--10--------10--|----------------------------|
-------------------------------|-------------------------13-11------|--13--11--11--13------------|
-------------------------------|------------------------------------|----------------------------|


   |--3--|   |--3--|   |--3--|   |--3--|   |--3--|   |--3--|   |--3--|   |--3--|  
   S  S  S   S  S  S   S  S  S   S  S  S   S  S  S   S  S  S   S  S  S   S  S  S  
---------------------------------------------------------------------------------|
--14p-5h-9h-14p-5h-9h-14p-5h-9h-14p-5h-9h-14p-5h-9h-14p-5h-9h-14p-5h-9h-14p-5h-9-|
---------------------------------------------------------------------------------|
---------------------------------------------------------------------------------|
---------------------------------------------------------------------------------|
---------------------------------------------------------------------------------|


   |--3--|   |--3--|   |--3--|   |--3--|   |--3--|   |--3--|   |--3--|   |--3--|  
   S  S  S   S  S  S   S  S  S   S  S  S   S  S  S   S  S  S   S  S  S   S  S  S  
---------------------------------------------------------------------------------|
---------------------------------------------------------------------------------|
--14p-6h-9h-14p-6h-9h-14p-6h-9h-14p-6h-9h-14p-6h-9h-14p-6h-9h-14p-6h-9h-14p-6h-9-|
---------------------------------------------------------------------------------|
---------------------------------------------------------------------------------|
---------------------------------------------------------------------------------|


   |--3--|   |--3--|   |--3--|   |--3--|   |--3--|   |--3--|   |--3--|   |--3--|  
   S  S  S   S  S  S   S  S  S   S  S  S   S  S  S   S  S  S   S  S  S   S  S  S  
---------------------------------------------------------------------------------|
---------------------------------------------------------------------------------|
--13p-5h-8h-13p-5h-8h-13p-5h-8h-13p-5h-8h-13p-5h-8h-13p-5h-8h-13p-5h-8h-13p-5h-8-|
---------------------------------------------------------------------------------|
---------------------------------------------------------------------------------|
---------------------------------------------------------------------------------|


   |--3--|   |--3--|   |--3--|   |--3--|   |--3--|   |--3--|   |--3--|   |--3--|  
   S  S  S   S  S  S   S  S  S   S  S  S   S  S  S   S  S  S   S  S  S   S  S  S  
---------------------------------------------------------------------------------|
---------------------------------------------------------------------------------|
--14p-6h-9h-14p-6h-9h-14p-6h-9h-14p-6h-9h-14p-6h-9h-14p-6h-9h-14p-6h-9h-14p-6h-9-|
---------------------------------------------------------------------------------|
---------------------------------------------------------------------------------|
---------------------------------------------------------------------------------|


  W                   W                   W                   W                   W                 
-------------------|-------------------|-------------------|-------------------|-------------------|
-------------------|-------------------|-------------------|-------------------|-------------------|
-------------------|-------------------|-------------------|-------------------|-------------------|
-------------------|-------------------|-------------------|-------------------|-------------------|
-------------------|-------------------|-------------------|-------------------|-------------------|
-------------------|-------------------|-------------------|-------------------|-------------------|


  W                   W                   W                   W                   W                 
-------------------|-------------------|-------------------|-------------------|-------------------|
-------------------|-------------------|-------------------|-------------------|-------------------|
-------------------|-------------------|-------------------|-------------------|-------------------|
-------------------|-------------------|-------------------|-------------------|-------------------|
-------------------|-------------------|-------------------|-------------------|-------------------|
-------------------|-------------------|-------------------|-------------------|-------------------|


  W                   W                   W                   W                   W                 
-------------------|-------------------|-------------------|-------------------|-------------------|
-------------------|-------------------|-------------------|-------------------|-------------------|
-------------------|-------------------|-------------------|-------------------|-------------------|
-------------------|-------------------|-------------------|-------------------|-------------------|
-------------------|-------------------|-------------------|-------------------|-------------------|
-------------------|-------------------|-------------------|-------------------|-------------------|


  W                   W                   W                   W                   W                 
-------------------|-------------------|-------------------|-------------------|-------------------|
-------------------|-------------------|-------------------|-------------------|-------------------|
-------------------|-------------------|-------------------|-------------------|-------------------|
-------------------|-------------------|-------------------|-------------------|-------------------|
-------------------|-------------------|-------------------|-------------------|-------------------|
-------------------|-------------------|-------------------|-------------------|-------------------|


  W                   W                   W                   W                   W                 
-------------------|-------------------|-------------------|-------------------|-------------------|
-------------------|-------------------|-------------------|-------------------|-------------------|
-------------------|-------------------|-------------------|-------------------|-------------------|
-------------------|-------------------|-------------------|-------------------|-------------------|
-------------------|-------------------|-------------------|-------------------|-------------------|
-------------------|-------------------|-------------------|-------------------|-------------------|


  W                   W                   W                 
-------------------|-------------------|-------------------|
-------------------|-------------------|-------------------|
-------------------|-------------------|-------------------|
-------------------|-------------------|-------------------|
-------------------|-------------------|-------------------|
-------------------|-------------------|-------------------|


  W                W                Q       E   E    E   E   E   E   E   E   
-----------------------------------------|----------------------------------|
-----------------------------------------|-----14p--13----------------------|
-----------------------------------------|--------------15--15--15--13--15--|
-----------------------------------------|----------------------------------|
-----------------------------------------|----------------------------------|
-----------------------------------------|----------------------------------|


  E   E    E   E   E   E   E   E     E   E    E   E   E   E   E   E   
----------------------------------|----------------------------------|
-----14p--13----------------------|-----14p--13----------------------|
--------------15--15--15--13--15--|--------------15--15--15--13--15--|
----------------------------------|----------------------------------|
----------------------------------|----------------------------------|
----------------------------------|----------------------------------|


  E   E    E   E   E   E   E   E     E   E    E   E   E   E   E   E   
----------------------------------|----------------------------------|
-----14p--13----------13--14--16--|-----14p--13----------------------|
--------------15--15--------------|--------------15--15--15--13--15--|
----------------------------------|----------------------------------|
----------------------------------|----------------------------------|
----------------------------------|----------------------------------|


  E   E    E   E   E   E   E   E     E   E    E   E   E   E   E   E   
----------------------------------|----------------------------------|
-----14p--13----------------------|-----14p--13----------------------|
--------------15--15--15--13--15--|--------------15--15--15--13--15--|
----------------------------------|----------------------------------|
----------------------------------|----------------------------------|
----------------------------------|----------------------------------|


  E   E    E   E   E   E   E   E     E   E   E  E   E  E   E  E     W                  
----------------------------------|------------------------------|-------------------||
-----14p--13----------13--14--16--|------------------------------|-------------------||
--------------15--15--------------|------------------------------|-------------------||
----------------------------------|-----11--10--8--10--8------8--|--L----------------||
----------------------------------|-----------------------11-----|-------------------||
----------------------------------|------------------------------|-------------------||

Guitar 2


     W                   W                   W                   E   E    E   E   E   E   E   E   
E||-------------------|-------------------|-------------------|----------------------------------|
B||-------------------|-------------------|-------------------|-----18p--16----------------------|
G||-------------------|-------------------|-------------------|--------------18--18--18--17--18--|
D||-------------------|-------------------|-------------------|----------------------------------|
A||-------------------|-------------------|-------------------|----------------------------------|
E||-------------------|-------------------|-------------------|----------------------------------|


  E   E    E   E   E   E   E   E     E   E    E   E   E   E   E   E   
----------------------------------|----------------------------------|
-----18p--16----------------------|-----18p--16----------------------|
--------------18--18--18--17--18--|--------------18--18--18--17--18--|
----------------------------------|----------------------------------|
----------------------------------|----------------------------------|
----------------------------------|----------------------------------|


  E   E    E   E   E   E   E   E     E   E    E   E   E   E   E   E   
------------------------------16--|----------------------------------|
-----18p--16----------16--18------|-----18p--16----------------------|
--------------18--18--------------|--------------18--18--18--17--18--|
----------------------------------|----------------------------------|
----------------------------------|----------------------------------|
----------------------------------|----------------------------------|


  E   E    E   E   E   E   E   E     E   E    E   E   E   E   E   E   
----------------------------------|----------------------------------|
-----18p--16----------------------|-----18p--16----------------------|
--------------18--18--18--17--18--|--------------18--18--18--17--18--|
----------------------------------|----------------------------------|
----------------------------------|----------------------------------|
----------------------------------|----------------------------------|


  E   E    E   E  E  E  E  E     W                   W                   W                 
------------------------------|-------------------|-------------------|-------------------|
-----18p--16------------------|-------------------|-------------------|-------------------|
--------------17--------------|-------------------|-------------------|-------------------|
------------------------------|-------------------|-------------------|-------------------|
------------------------------|-------------------|-------------------|-------------------|
------------------------------|-------------------|-------------------|-------------------|


  W                   W                   W                   W                   W                 
-------------------|-------------------|-------------------|-------------------|-------------------|
-------------------|-------------------|-------------------|-------------------|-------------------|
-------------------|-------------------|-------------------|-------------------|-------------------|
-------------------|-------------------|-------------------|-------------------|-------------------|
-------------------|-------------------|-------------------|-------------------|-------------------|
-------------------|-------------------|-------------------|-------------------|-------------------|


  W                   W                   W                   W                   W                 
-------------------|-------------------|-------------------|-------------------|-------------------|
-------------------|-------------------|-------------------|-------------------|-------------------|
-------------------|-------------------|-------------------|-------------------|-------------------|
-------------------|-------------------|-------------------|-------------------|-------------------|
-------------------|-------------------|-------------------|-------------------|-------------------|
-------------------|-------------------|-------------------|-------------------|-------------------|


  W                   W                   W                   W                   W                 
-------------------|-------------------|-------------------|-------------------|-------------------|
-------------------|-------------------|-------------------|-------------------|-------------------|
-------------------|-------------------|-------------------|-------------------|-------------------|
-------------------|-------------------|-------------------|-------------------|-------------------|
-------------------|-------------------|-------------------|-------------------|-------------------|
-------------------|-------------------|-------------------|-------------------|-------------------|


  W                   W                   W                   W                   W                 
-------------------|-------------------|-------------------|-------------------|-------------------|
-------------------|-------------------|-------------------|-------------------|-------------------|
-------------------|-------------------|-------------------|-------------------|-------------------|
-------------------|-------------------|-------------------|-------------------|-------------------|
-------------------|-------------------|-------------------|-------------------|-------------------|
-------------------|-------------------|-------------------|-------------------|-------------------|


  W                   W                   W                   W                   W                 
-------------------|-------------------|-------------------|-------------------|-------------------|
-------------------|-------------------|-------------------|-------------------|-------------------|
-------------------|-------------------|-------------------|-------------------|-------------------|
-------------------|-------------------|-------------------|-------------------|-------------------|
-------------------|-------------------|-------------------|-------------------|-------------------|
-------------------|-------------------|-------------------|-------------------|-------------------|


  W                   W                   W                   W                   W                 
-------------------|-------------------|-------------------|-------------------|-------------------|
-------------------|-------------------|-------------------|-------------------|-------------------|
-------------------|-------------------|-------------------|-------------------|-------------------|
-------------------|-------------------|-------------------|-------------------|-------------------|
-------------------|-------------------|-------------------|-------------------|-------------------|
-------------------|-------------------|-------------------|-------------------|-------------------|


  W                   W                   W                   W                   W                 
-------------------|-------------------|-------------------|-------------------|-------------------|
-------------------|-------------------|-------------------|-------------------|-------------------|
-------------------|-------------------|-------------------|-------------------|-------------------|
-------------------|-------------------|-------------------|-------------------|-------------------|
-------------------|-------------------|-------------------|-------------------|-------------------|
-------------------|-------------------|-------------------|-------------------|-------------------|


  W                   W                   W                   W                   W                 
-------------------|-------------------|-------------------|-------------------|-------------------|
-------------------|-------------------|-------------------|-------------------|-------------------|
-------------------|-------------------|-------------------|-------------------|-------------------|
-------------------|-------------------|-------------------|-------------------|-------------------|
-------------------|-------------------|-------------------|-------------------|-------------------|
-------------------|-------------------|-------------------|-------------------|-------------------|


  W                   W                   W                   W                   W                 
-------------------|-------------------|-------------------|-------------------|-------------------|
-------------------|-------------------|-------------------|-------------------|-------------------|
-------------------|-------------------|-------------------|-------------------|-------------------|
-------------------|-------------------|-------------------|-------------------|-------------------|
-------------------|-------------------|-------------------|-------------------|-------------------|
-------------------|-------------------|-------------------|-------------------|-------------------|


  W                   W.               H.              E   E    E   E   E   E   E   E   
-------------------|--------------------------------|----------------------------------|
-------------------|--------------------------------|-----18p--16----------------------|
-------------------|--------------------------------|--------------18--18--18--17--18--|
-------------------|--------------------------------|----------------------------------|
-------------------|--------------------------------|----------------------------------|
-------------------|--------------------------------|----------------------------------|


  E   E    E   E   E   E   E   E     E   E    E   E   E   E   E   E   
----------------------------------|----------------------------------|
-----18p--16----------------------|-----18p--16----------------------|
--------------18--18--18--17--18--|--------------18--18--18--17--18--|
----------------------------------|----------------------------------|
----------------------------------|----------------------------------|
----------------------------------|----------------------------------|


  E   E    E   E   E   E   E   E     E   E    E   E   E   E   E   E   
------------------------------16--|----------------------------------|
-----18p--16----------16--18------|-----18p--16----------------------|
--------------18--18--------------|--------------18--18--18--17--18--|
----------------------------------|----------------------------------|
----------------------------------|----------------------------------|
----------------------------------|----------------------------------|


  E   E    E   E   E   E   E   E     E   E    E   E   E   E   E   E   
----------------------------------|----------------------------------|
-----18p--16----------------------|-----18p--16----------------------|
--------------18--18--18--17--18--|--------------18--18--18--17--18--|
----------------------------------|----------------------------------|
----------------------------------|----------------------------------|
----------------------------------|----------------------------------|


  E   E    E   E  E  E  E  E     E  E  E  E  E  E  E  E     E  E  E  E  E  E  E  E   
------------------------------|--------6-----6--6-----6--|-----6-----6-----6--6-----|
-----18p--16------------------|--------------------------|--------------------------|
--------------17--------------|--------------------------|--------------------------|
------------------------------|--------------------------|--------------------------|
------------------------------|--------------------------|--------------------------|
------------------------------|--------------------------|--------------------------|


  E  E  E  E  E  E  E  E     E  E  E  E  E  E  E  E     E  E  E  E  E  E  E  E   
--------6-----6--6-----6--|-----6-----6-----6--6--6--|--L--6--6--6--4--4--4--4--|
--------------------------|--------------------------|--------------------------|
--------------------------|--------------------------|--------------------------|
--------------------------|--------------------------|--------------------------|
--------------------------|--------------------------|--------------------------|
--------------------------|--------------------------|--------------------------|


  E  E  E  E  E  E  E  E     Q    E  E  E  E  E  E     E  E  E  E  E  E  E  E   
--------------------------|-------------------4--6--|--L--6--6--6--6--6--6--6--|
--6--6--6--6--6--6--6--4--|--L----4--4--4--6--------|--------------------------|
--------------------------|-------------------------|--------------------------|
--------------------------|-------------------------|--------------------------|
--------------------------|-------------------------|--------------------------|
--------------------------|-------------------------|--------------------------|


  E  E  E  E  E  E  E  E     E  E  E  E  E  E  E  E     E  E  E  E  E  E  E  E   
--------6-----6--6-----6--|-----6-----6-----6--6-----|--------6-----6--6-----6--|
--------------------------|--------------------------|--------------------------|
--------------------------|--------------------------|--------------------------|
--------------------------|--------------------------|--------------------------|
--------------------------|--------------------------|--------------------------|
--------------------------|--------------------------|--------------------------|


  E  E  E  E  E  E  E  E     E  E  E  E  E  E  E  E     E  E  E  E  E  E  E  E   
-----6-----6-----6--6--6--|--L--6--6--6--4--4--4--4--|--------------------------|
--------------------------|--------------------------|--6--6--6--6--6--6--6--4--|
--------------------------|--------------------------|--------------------------|
--------------------------|--------------------------|--------------------------|
--------------------------|--------------------------|--------------------------|
--------------------------|--------------------------|--------------------------|


  Q    E  E  E  E  E  E     E  E  E  E  E  E  E  E     W                   W                 
-------------------4--6--|--L--6--6--6--8--8--8--8--|-------------------|-------------------|
--L----4--4--4--6--------|--------------------------|-------------------|-------------------|
-------------------------|--------------------------|-------------------|-------------------|
-------------------------|--------------------------|-------------------|-------------------|
-------------------------|--------------------------|-------------------|-------------------|
-------------------------|--------------------------|-------------------|-------------------|


  W                   W                   W                   W                   W                 
-------------------|-------------------|-------------------|-------------------|-------------------|
-------------------|-------------------|-------------------|-------------------|-------------------|
-------------------|-------------------|-------------------|-------------------|-------------------|
-------------------|-------------------|-------------------|-------------------|-------------------|
-------------------|-------------------|-------------------|-------------------|-------------------|
-------------------|-------------------|-------------------|-------------------|-------------------|


  W                   W                   W                   W                   W                 
-------------------|-------------------|-------------------|-------------------|-------------------|
-------------------|-------------------|-------------------|-------------------|-------------------|
-------------------|-------------------|-------------------|-------------------|-------------------|
-------------------|-------------------|-------------------|-------------------|-------------------|
-------------------|-------------------|-------------------|-------------------|-------------------|
-------------------|-------------------|-------------------|-------------------|-------------------|


  W                   W                   W                   W                   W                 
-------------------|-------------------|-------------------|-------------------|-------------------|
-------------------|-------------------|-------------------|-------------------|-------------------|
-------------------|-------------------|-------------------|-------------------|-------------------|
-------------------|-------------------|-------------------|-------------------|-------------------|
-------------------|-------------------|-------------------|-------------------|-------------------|
-------------------|-------------------|-------------------|-------------------|-------------------|


  W                   W                   W                   W                   W                 
-------------------|-------------------|-------------------|-------------------|-------------------|
-------------------|-------------------|-------------------|-------------------|-------------------|
-------------------|-------------------|-------------------|-------------------|-------------------|
-------------------|-------------------|-------------------|-------------------|-------------------|
-------------------|-------------------|-------------------|-------------------|-------------------|
-------------------|-------------------|-------------------|-------------------|-------------------|


  W                   W                   W                   W                   W                 
-------------------|-------------------|-------------------|-------------------|-------------------|
-------------------|-------------------|-------------------|-------------------|-------------------|
-------------------|-------------------|-------------------|-------------------|-------------------|
-------------------|-------------------|-------------------|-------------------|-------------------|
-------------------|-------------------|-------------------|-------------------|-------------------|
-------------------|-------------------|-------------------|-------------------|-------------------|


  W                   W                   W                   W                   W                 
-------------------|-------------------|-------------------|-------------------|-------------------|
-------------------|-------------------|-------------------|-------------------|-------------------|
-------------------|-------------------|-------------------|-------------------|-------------------|
-------------------|-------------------|-------------------|-------------------|-------------------|
-------------------|-------------------|-------------------|-------------------|-------------------|
-------------------|-------------------|-------------------|-------------------|-------------------|


  W                   W                    H.                H.                H.             
-------------------|-------------------|--18~------------|--17~------------|-----------------|
-------------------|-------------------|-----------------|-----------------|--18~------------|
-------------------|-------------------|-----------------|-----------------|-----------------|
-------------------|-------------------|-----------------|-----------------|-----------------|
-------------------|-------------------|-----------------|-----------------|-----------------|
-------------------|-------------------|-----------------|-----------------|-----------------|


   H.               H.               H.                H.                H.            
----------------|----------------|-----------------|-----------------|----------------|
---L------------|---L------------|--16~------------|-----------------|----------------|
----------------|----------------|-----------------|--18~------------|---L------------|
----------------|----------------|-----------------|-----------------|----------------|
----------------|----------------|-----------------|-----------------|----------------|
----------------|----------------|-----------------|-----------------|----------------|


   H.                H          Q        H.                H.               H.            
-----------------|--17~--------------|-----------------|----------------|----------------|
-----------------|-------------17----|--18~------------|---L------------|---L------------|
--18~------------|-------------------|-----------------|----------------|----------------|
-----------------|-------------------|-----------------|----------------|----------------|
-----------------|-------------------|-----------------|----------------|----------------|
-----------------|-------------------|-----------------|----------------|----------------|


   H.               H.              W                   W                   W                 
----------------|----------------|-------------------|-------------------|-------------------|
--16------------|----------------|-------------------|-------------------|-------------------|
----------------|--18------------|-------------------|-------------------|-------------------|
----------------|----------------|-------------------|-------------------|-------------------|
----------------|----------------|-------------------|-------------------|-------------------|
----------------|----------------|-------------------|-------------------|-------------------|


  W                   W                   W                   W                   W                 
-------------------|-------------------|-------------------|-------------------|-------------------|
-------------------|-------------------|-------------------|-------------------|-------------------|
-------------------|-------------------|-------------------|-------------------|-------------------|
-------------------|-------------------|-------------------|-------------------|-------------------|
-------------------|-------------------|-------------------|-------------------|-------------------|
-------------------|-------------------|-------------------|-------------------|-------------------|


  W                   W                   W                   W                   W                 
-------------------|-------------------|-------------------|-------------------|-------------------|
-------------------|-------------------|-------------------|-------------------|-------------------|
-------------------|-------------------|-------------------|-------------------|-------------------|
-------------------|-------------------|-------------------|-------------------|-------------------|
-------------------|-------------------|-------------------|-------------------|-------------------|
-------------------|-------------------|-------------------|-------------------|-------------------|


  W                   W                   W                   W                   W                 
-------------------|-------------------|-------------------|-------------------|-------------------|
-------------------|-------------------|-------------------|-------------------|-------------------|
-------------------|-------------------|-------------------|-------------------|-------------------|
-------------------|-------------------|-------------------|-------------------|-------------------|
-------------------|-------------------|-------------------|-------------------|-------------------|
-------------------|-------------------|-------------------|-------------------|-------------------|


  W                   W                   W                   W                   W                 
-------------------|-------------------|-------------------|-------------------|-------------------|
-------------------|-------------------|-------------------|-------------------|-------------------|
-------------------|-------------------|-------------------|-------------------|-------------------|
-------------------|-------------------|-------------------|-------------------|-------------------|
-------------------|-------------------|-------------------|-------------------|-------------------|
-------------------|-------------------|-------------------|-------------------|-------------------|


  W                   W                   W                   W                   W                 
-------------------|-------------------|-------------------|-------------------|-------------------|
-------------------|-------------------|-------------------|-------------------|-------------------|
-------------------|-------------------|-------------------|-------------------|-------------------|
-------------------|-------------------|-------------------|-------------------|-------------------|
-------------------|-------------------|-------------------|-------------------|-------------------|
-------------------|-------------------|-------------------|-------------------|-------------------|


  W                   W                   W                   W                   W                 
-------------------|-------------------|-------------------|-------------------|-------------------|
-------------------|-------------------|-------------------|-------------------|-------------------|
-------------------|-------------------|-------------------|-------------------|-------------------|
-------------------|-------------------|-------------------|-------------------|-------------------|
-------------------|-------------------|-------------------|-------------------|-------------------|
-------------------|-------------------|-------------------|-------------------|-------------------|


  W                   W                   W                   W                   W                 
-------------------|-------------------|-------------------|-------------------|-------------------|
-------------------|-------------------|-------------------|-------------------|-------------------|
-------------------|-------------------|-------------------|-------------------|-------------------|
-------------------|-------------------|-------------------|-------------------|-------------------|
-------------------|-------------------|-------------------|-------------------|-------------------|
-------------------|-------------------|-------------------|-------------------|-------------------|


  W                   W                   W                   W                   W                 
-------------------|-------------------|-------------------|-------------------|-------------------|
-------------------|-------------------|-------------------|-------------------|-------------------|
-------------------|-------------------|-------------------|-------------------|-------------------|
-------------------|-------------------|-------------------|-------------------|-------------------|
-------------------|-------------------|-------------------|-------------------|-------------------|
-------------------|-------------------|-------------------|-------------------|-------------------|


  W                   W                   W.               H.            
-------------------|-------------------|--------------------------------|
-------------------|-------------------|--------------------------------|
-------------------|-------------------|--------------------------------|
-------------------|-------------------|--------------------------------|
-------------------|-------------------|--------------------------------|
-------------------|-------------------|--------------------------------|


  E   E    E   E   E   E   E   E     E   E    E   E   E   E   E   E   
----------------------------------|----------------------------------|
-----18p--16----------------------|-----18p--16----------------------|
--------------18--18--18--17--18--|--------------18--18--18--17--18--|
----------------------------------|----------------------------------|
----------------------------------|----------------------------------|
----------------------------------|----------------------------------|


  E   E    E   E   E   E   E   E     E   E    E   E   E   E   E   E   
----------------------------------|------------------------------16--|
-----18p--16----------------------|-----18p--16----------16--18------|
--------------18--18--18--17--18--|--------------18--18--------------|
----------------------------------|----------------------------------|
----------------------------------|----------------------------------|
----------------------------------|----------------------------------|


  E   E    E   E   E   E   E   E     E   E    E   E   E   E   E   E   
----------------------------------|----------------------------------|
-----18p--16----------------------|-----18p--16----------------------|
--------------18--18--18--17--18--|--------------18--18--18--17--18--|
----------------------------------|----------------------------------|
----------------------------------|----------------------------------|
----------------------------------|----------------------------------|


  E   E    E   E   E   E   E   E     E   E    E   E   E   E   E   E   
----------------------------------|------------------------------16--|
-----18p--16----------------------|-----18p--16----------16--18------|
--------------18--18--18--17--18--|--------------18--18--------------|
----------------------------------|----------------------------------|
----------------------------------|----------------------------------|
----------------------------------|----------------------------------|


  E   E   E   E   E   E   E   E      W                  
-----18--16------16------16--18--|---L----------------||
-------------18------18----------|--------------------||
---------------------------------|--------------------||
---------------------------------|--------------------||
---------------------------------|--------------------||
---------------------------------|--------------------||

Guitar 3


     W                   Q    E  Q    E  Q       E   E   E   E   E   E   E   E   
E||-------------------|-----------------------|---------------------------------|
B||-------------------|-----------------------|---------------------------------|
G||-------------------|----------6-------8----|-----13--13--13--13--13--13--13--|
D||-------------------|--8-------6-------8----|-----13--13--13--13--13--13--13--|
A||-------------------|--8-------4-------6----|-----11--11--11--11--11--11--11--|
E||-------------------|--6--------------------|---------------------------------|


  Q    E  E  E  E  E  E     E  E  E  E  E  E  E  E     Q    E  E  E  E  E   E   
-------------------------|--------------------------|--------------------------|
-------------------------|--------------------------|--------------------------|
----------------------6--|--L--6--6--6--6--6--6--6--|--8----8--8--8--8--8--10--|
--8----8--8--8--8--8--6--|--L--6--6--6--6--6--6--6--|--8----8--8--8--8--8--10--|
--8----8--8--8--8--8--4--|--L--4--4--4--4--4--4--4--|--6----6--6--6--6--6---8--|
--6----6--6--6--6--6-----|--------------------------|--------------------------|


   E   E   E   E   E   E   E   E     Q    E  E  E  E  E  E     E  E  E  E  E  E  E  E   
----------------------------------|-------------------------|--------------------------|
----------------------------------|-------------------------|--------------------------|
---L--10--10--10--10--10--10--10--|----------------------6--|--L--6--6--6--6--6--6--6--|
---L--10--10--10--10--10--10--10--|--8----8--8--8--8--8--6--|--L--6--6--6--6--6--6--6--|
---L---8---8---8---8---8---8---8--|--8----8--8--8--8--8--4--|--L--4--4--4--4--4--4--4--|
----------------------------------|--6----6--6--6--6--6-----|--------------------------|


  Q    E  E  E  E  E  E     E  E  E  E  E  E  E  E     W                   W                 
-------------------------|--------------------------|-------------------|-------------------|
-------------------------|--------------------------|-------------------|-------------------|
--8----8--8--8--8--8-----|--------------------------|-------------------|-------------------|
--8----8--8--8--8--8--6--|--L--6--6--6--------------|--8----------------|-------------------|
--6----6--6--6--6--6--6--|--L--6--6--6--------------|--8----------------|-------------------|
----------------------4--|--L--4--4--4--------------|--6----------------|-------------------|


  W                   W                   Q    E  E  E  E  E  E     Q    E  E  E  E  E  E   
-------------------|-------------------|-------------------------|-------------------------|
-------------------|-------------------|-------------------------|-------------------------|
-------------------|-------------------|-------------------------|-------------------------|
--8----------------|-------------------|--4----4--4--4--4--4--4--|--4----4--4--4--4--4--4--|
--8----------------|-------------------|--4----4--4--4--4--4--4--|--4----4--4--4--4--4--4--|
--6----------------|-------------------|--2----2--2--2--2--2--2--|--2----2--2--2--2--2--2--|


  Q    E  E  E  E  E  E     Q    E  E  E  E  E  E     W                   W                 
-------------------------|-------------------------|-------------------|-------------------|
-------------------------|-------------------------|-------------------|-------------------|
--8----8--8--8--8--8--8--|-------------------------|-------------------|-------------------|
--8----8--8--8--8--8--8--|--6----6--6--6--6--6--6--|--8----------------|-------------------|
--6----6--6--6--6--6--6--|--6----6--6--6--6--6--6--|--8----------------|-------------------|
-------------------------|--4----4--4--4--4--4--4--|--6----------------|-------------------|


  W                   W                   Q    E  E  E  E  E  E     Q    E  E  E  E  E  E   
-------------------|-------------------|-------------------------|-------------------------|
-------------------|-------------------|-------------------------|-------------------------|
-------------------|-------------------|-------------------------|-------------------------|
--8----------------|-------------------|--4----4--4--4--4--4--4--|--4----4--4--4--4--4--4--|
--8----------------|-------------------|--4----4--4--4--4--4--4--|--4----4--4--4--4--4--4--|
--6----------------|-------------------|--2----2--2--2--2--2--2--|--2----2--2--2--2--2--2--|


                                                             F#7               F7  
  Q    E  E  E  E  E  E      Q     E   E   E   E   E   E     Q    Q    E  Q    E   
-------------------------|--------------------------------|-----------------------|
-------------------------|--------------------------------|--7----7----x--7----6--|
--8----8--8--8--8--8--8--|--10----10--10--10--10--10--10--|--9----9----x--9----8--|
--8----8--8--8--8--8--8--|--10----10--10--10--10--10--10--|--8----8----x--8----7--|
--6----6--6--6--6--6--6--|---8-----8---8---8---8---8---8--|--9----9----x--9----8--|
-------------------------|--------------------------------|-----------------------|


                           A#m7               D#9       D#9                  
  E  Q    Q    E  E  E     Q    Q    E  E  E  E      E  Q    E  E  E  E  E   
------------------------|--6----6----x--6---------|-------------------------|
--L--6----6----6--6-----|--6----6----x--6-----6---|--L--6----6--x--6--6-----|
--L--8----8----8--8-----|--6----6----x--6-----6---|--L--6----6--x--6--6-----|
--L--7----7----7--7-----|--6----6----x--6-----5---|--L--5----5--x--5--5-----|
--L--8----8----8--8-----|--8----8----x--8-----6---|--L--6----6--x--6--6-----|
------------------------|--6----6----x--6---------|-------------------------|


  F#7               F7                             A#m7               D#9  
  Q    Q    E  Q    E     E  Q    Q    E  E  E     Q    Q    E  E  E  E    
-----------------------|------------------------|--6----6----x--6---------|
--7----7----x--7----6--|--L--6----6----6--6-----|--6----6----x--6-----6---|
--9----9----x--9----8--|--L--8----8----8--8-----|--6----6----x--6-----6---|
--8----8----x--8----7--|--L--7----7----7--7-----|--6----6----x--6-----5---|
--9----9----x--9----8--|--L--8----8----8--8-----|--8----8----x--8-----6---|
-----------------------|------------------------|--6----6----x--6---------|


                            F#7                                          D#9                 
  E  Q    E  E  E  E  E     Q.     Q.     Q       E  Q.     Q.     E     Q.     Q.     Q     
-------------------------|---------------------|----------------------|---------------------|
--L--6----6--x--6--6-----|--7------7------7----|--L--7------7---------|--6------6------6----|
--L--6----6--x--6--6-----|--9------9------9----|--L--9------9---------|--6------6------6----|
--L--5----5--x--5--5-----|--8------8------8----|--L--8------8---------|--5------5------5----|
--L--6----6--x--6--6-----|--9------9------9----|--L--9------9---------|--6------6------6----|
-------------------------|---------------------|----------------------|---------------------|


                         F#7                                              F7  
  E  Q.     Q.     E     E   E  E  E  E  E  E  E     E  E  E  E  E  E  E  E   
----------------------|---------------------------|--------------------------|
--L--6------6---------|--7---7--7--7--7--7--7--7--|--7--7--7--7--7--7--7--6--|
--L--6------6---------|--9---9--9--9--9--9--9--9--|--9--9--9--9--9--9--9--8--|
--L--5------5---------|--8---8--8--8--8--8--8--8--|--8--8--8--8--8--8--8--7--|
--L--6------6---------|--9---9--9--9--9--9--9--9--|--9--9--9--9--9--9--9--8--|
----------------------|---------------------------|--------------------------|


                                                        >               >     
  E  E  E  E  E  E  E  E     E  E  E  E  E  E  E  E     Q    E  Q    E  Q     
--------------------------|--------------------------|-----------------------|
--L--6--6--6--6--6--6--6--|--6--6--6-----------------|-----------------------|
--L--8--8--8--8--8--8--8--|--8--8--8-----------------|-----------------------|
--L--7--7--7--7--7--7--7--|--7--7--7-----------------|--3----3--3----3--4----|
--L--8--8--8--8--8--8--8--|--8--8--8-----------------|--3----3--3----3--4----|
--------------------------|--------------------------|--1----1--1----1--2----|


                            >               >                                 >               >     
  E  Q    E  E  E  E  E     Q    E  Q    E  Q       E  Q    E  E  E  E  E     Q    E  Q    E  Q     
-------------------------|-----------------------|-------------------------|-----------------------|
-------------------------|-----------------------|-------------------------|-----------------------|
-------------------------|-----------------------|-------------------------|-----------------------|
--4--4----4--4--4--4--4--|--6----6--6----6--8----|--8--8----8--8--8--8--8--|--3----3--3----3--4----|
--4--4----4--4--4--4--4--|--6----6--6----6--8----|--8--8----8--8--8--8--8--|--3----3--3----3--4----|
--2--2----2--2--2--2--2--|--4----4--4----4--6----|--6--6----6--6--6--6--6--|--1----1--1----1--2----|


                            >               >                                 >               >     
  E  Q    E  E  E  E  E     Q    E  Q    E  Q       E  Q    E  E  E  E  E     Q    E  Q    E  Q     
-------------------------|-----------------------|-------------------------|-----------------------|
-------------------------|-----------------------|-------------------------|-----------------------|
-------------------------|-----------------------|-------------------------|-----------------------|
--4--4----4--4--4--4--4--|--6----6--6----6--7----|--7--7----7--7--7--7--7--|--3----3--3----3--4----|
--4--4----4--4--4--4--4--|--6----6--6----6--7----|--7--7----7--7--7--7--7--|--3----3--3----3--4----|
--2--2----2--2--2--2--2--|--4----4--4----4--5----|--5--5----5--5--5--5--5--|--1----1--1----1--2----|


                            >               >                                 >               >     
  E  Q    E  E  E  E  E     Q    E  Q    E  Q       E  Q    E  E  E  E  E     Q    E  Q    E  Q     
-------------------------|-----------------------|-------------------------|-----------------------|
-------------------------|-----------------------|-------------------------|-----------------------|
-------------------------|-----------------------|-------------------------|-----------------------|
--4--4----4--4--4--4--4--|--6----6--6----6--8----|--8--8----8--8--8--8--8--|--3----3--3----3--4----|
--4--4----4--4--4--4--4--|--6----6--6----6--8----|--8--8----8--8--8--8--8--|--3----3--3----3--4----|
--2--2----2--2--2--2--2--|--4----4--4----4--6----|--6--6----6--6--6--6--6--|--1----1--1----1--2----|


                            >                                                   
  E  Q    E  E  E  E  E     E  E  E  E  E  E  E  E     E  E  E  E  E  E  E  E   
-------------------------|--------------------------|--------------------------|
-------------------------|--------------------------|--------------------------|
-------------------------|--------------------------|--------------------------|
--4--4----4--4--4--4--4--|--6--6--6--6--6--6--6--6--|--6--6--6--6--6--6--6--6--|
--4--4----4--4--4--4--4--|--6--6--6--6--6--6--6--6--|--6--6--6--6--6--6--6--6--|
--2--2----2--2--2--2--2--|--4--4--4--4--4--4--4--4--|--4--4--4--4--4--4--4--4--|


  E  E  E  E  E  E  E  E     W.               H.              Q    E  E  E  E  E  E   
--------------------------|--------------------------------|-------------------------|
--------------------------|--------------------------------|-------------------------|
--------------------------|--------------------------------|----------------------6--|
--6--6--6--6--6--6--6--6--|--------------------------------|--8----8--8--8--8--8--6--|
--6--6--6--6--6--6--6--6--|--------------------------------|--8----8--8--8--8--8--4--|
--4--4--4--4--4--4--4--4--|--------------------------------|--6----6--6--6--6--6-----|


  E  E  E  E  E  E  E  E     Q    E  E  E  E  E   E      E   E   E   E   E   E   E   E   
--------------------------|--------------------------|----------------------------------|
--------------------------|--------------------------|----------------------------------|
--L--6--6--6--6--6--6--6--|--8----8--8--8--8--8--10--|---L--10--10--10--10--10--10--10--|
--L--6--6--6--6--6--6--6--|--8----8--8--8--8--8--10--|---L--10--10--10--10--10--10--10--|
--L--4--4--4--4--4--4--4--|--6----6--6--6--6--6---8--|---L---8---8---8---8---8---8---8--|
--------------------------|--------------------------|----------------------------------|


  Q    E  E  E  E  E  E     E  E  E  E  E  E  E  E     Q    E  E  E  E  E  E   
-------------------------|--------------------------|-------------------------|
-------------------------|--------------------------|-------------------------|
----------------------6--|--L--6--6--6--6--6--6--6--|--8----8--8--8--8--8-----|
--8----8--8--8--8--8--6--|--L--6--6--6--6--6--6--6--|--8----8--8--8--8--8--6--|
--8----8--8--8--8--8--4--|--L--4--4--4--4--4--4--4--|--6----6--6--6--6--6--6--|
--6----6--6--6--6--6-----|--------------------------|----------------------4--|


  E  E  E  E  E  E  E  E     W                   W                   W                 
--------------------------|-------------------|-------------------|-------------------|
--------------------------|-------------------|-------------------|-------------------|
--------------------------|-------------------|-------------------|-------------------|
--L--6--6--3--------------|--8----------------|-------------------|--8----------------|
--L--6--6--3--------------|--8----------------|-------------------|--8----------------|
--L--4--4--1--------------|--6----------------|-------------------|--6----------------|


  W                   Q    E  E  E  E  E  E     Q    E  E  E  E  E  E     Q    E  E  E  E  E  E   
-------------------|-------------------------|-------------------------|-------------------------|
-------------------|-------------------------|-------------------------|-------------------------|
-------------------|-------------------------|-------------------------|--8----8--8--8--8--8--8--|
-------------------|--4----4--4--4--4--4--4--|--4----4--4--4--4--4--4--|--8----8--8--8--8--8--8--|
-------------------|--4----4--4--4--4--4--4--|--4----4--4--4--4--4--4--|--6----6--6--6--6--6--6--|
-------------------|--2----2--2--2--2--2--2--|--2----2--2--2--2--2--2--|-------------------------|


  Q    E  E  E  E  E  E     W                   W                   W                 
-------------------------|-------------------|-------------------|-------------------|
-------------------------|-------------------|-------------------|-------------------|
-------------------------|-------------------|-------------------|-------------------|
--6----6--6--6--6--6--6--|--8----------------|-------------------|--8----------------|
--6----6--6--6--6--6--6--|--8----------------|-------------------|--8----------------|
--4----4--4--4--4--4--4--|--6----------------|-------------------|--6----------------|


  W                   Q    E  E  E  E  E  E     Q    E  E  E  E  E  E     Q    E  E  E  E  E  E   
-------------------|-------------------------|-------------------------|-------------------------|
-------------------|-------------------------|-------------------------|-------------------------|
-------------------|-------------------------|-------------------------|--8----8--8--8--8--8--8--|
-------------------|--4----4--4--4--4--4--4--|--4----4--4--4--4--4--4--|--8----8--8--8--8--8--8--|
-------------------|--4----4--4--4--4--4--4--|--4----4--4--4--4--4--4--|--6----6--6--6--6--6--6--|
-------------------|--2----2--2--2--2--2--2--|--2----2--2--2--2--2--2--|-------------------------|


                                   F#7               F7                           
   Q     E   E   E   E   E   E     Q    Q    E  Q    E     E  Q    Q    E  E  E   
--------------------------------|-----------------------|------------------------|
--------------------------------|--7----7----x--7----6--|--L--6----6----6--6-----|
--10----10--10--10--10--10--10--|--9----9----x--9----8--|--L--8----8----8--8-----|
--10----10--10--10--10--10--10--|--8----8----x--8----7--|--L--7----7----7--7-----|
---8-----8---8---8---8---8---8--|--9----9----x--9----8--|--L--8----8----8--8-----|
--------------------------------|-----------------------|------------------------|


  A#m7               D#9       D#9                    F#7               F7  
  Q    Q    E  E  E  E      E  Q    E  E  E  E  E     Q    Q    E  Q    E   
--6----6----x--6---------|-------------------------|-----------------------|
--6----6----x--6-----6---|--L--6----6--x--6--6-----|--7----7----x--7----6--|
--6----6----x--6-----6---|--L--6----6--x--6--6-----|--9----9----x--9----8--|
--6----6----x--6-----5---|--L--5----5--x--5--5-----|--8----8----x--8----7--|
--8----8----x--8-----6---|--L--6----6--x--6--6-----|--9----9----x--9----8--|
--6----6----x--6---------|-------------------------|-----------------------|


                           A#m7               D#9                              F#7                 
  E  Q    Q    E  E  E     Q    Q    E  E  E  E      E  Q    E  E  E  E  E     Q.     Q.     Q     
------------------------|--6----6----x--6---------|-------------------------|---------------------|
--L--6----6----6--6-----|--6----6----x--6-----6---|--L--6----6--x--6--6-----|--7------7------7----|
--L--8----8----8--8-----|--6----6----x--6-----6---|--L--6----6--x--6--6-----|--9------9------9----|
--L--7----7----7--7-----|--6----6----x--6-----5---|--L--5----5--x--5--5-----|--8------8------8----|
--L--8----8----8--8-----|--8----8----x--8-----6---|--L--6----6--x--6--6-----|--9------9------9----|
------------------------|--6----6----x--6---------|-------------------------|---------------------|


                         D#9                                          F#7                       
  E  Q.     Q.     E     Q.     Q.     Q       E  Q.     Q.     E     E   E  E  E  E  E  E  E   
----------------------|---------------------|----------------------|---------------------------|
--L--7------7---------|--6------6------6----|--L--6------6---------|--7---7--7--7--7--7--7--7--|
--L--9------9---------|--6------6------6----|--L--6------6---------|--9---9--9--9--9--9--9--9--|
--L--8------8---------|--5------5------5----|--L--5------5---------|--8---8--8--8--8--8--8--8--|
--L--9------9---------|--6------6------6----|--L--6------6---------|--9---9--9--9--9--9--9--9--|
----------------------|---------------------|----------------------|---------------------------|


                       F7                                                        
  E  E  E  E  E  E  E  E     E  E  E  E  E  E  E  E     E  E  E  E  E  E  E  E   
--------------------------|--------------------------|--------------------------|
--7--7--7--7--7--7--7--6--|--L--6--6--6--6--6--6--6--|--6--6--6-----------------|
--9--9--9--9--9--9--9--8--|--L--8--8--8--8--8--8--8--|--8--8--8-----------------|
--8--8--8--8--8--8--8--7--|--L--7--7--7--7--7--7--7--|--7--7--7-----------------|
--9--9--9--9--9--9--9--8--|--L--8--8--8--8--8--8--8--|--8--8--8-----------------|
--------------------------|--------------------------|--------------------------|


  >               >                                 >               >                               
  Q    E  Q    E  Q       E  Q    E  E  E  E  E     Q    E  Q    E  Q       E  Q    E  E  E  E  E   
-----------------------|-------------------------|-----------------------|-------------------------|
-----------------------|-------------------------|-----------------------|-------------------------|
-----------------------|-------------------------|-----------------------|-------------------------|
--3----3--3----3--4----|--4--4----4--4--4--4--4--|--6----6--6----6--8----|--8--8----8--8--8--8--8--|
--3----3--3----3--4----|--4--4----4--4--4--4--4--|--6----6--6----6--8----|--8--8----8--8--8--8--8--|
--1----1--1----1--2----|--2--2----2--2--2--2--2--|--4----4--4----4--6----|--6--6----6--6--6--6--6--|


  >               >                                 >               >                               
  Q    E  Q    E  Q       E  Q    E  E  E  E  E     Q    E  Q    E  Q       E  Q    E  E  E  E  E   
-----------------------|-------------------------|-----------------------|-------------------------|
-----------------------|-------------------------|-----------------------|-------------------------|
-----------------------|-------------------------|-----------------------|-------------------------|
--3----3--3----3--4----|--4--4----4--4--4--4--4--|--6----6--6----6--7----|--7--7----7--7--7--7--7--|
--3----3--3----3--4----|--4--4----4--4--4--4--4--|--6----6--6----6--7----|--7--7----7--7--7--7--7--|
--1----1--1----1--2----|--2--2----2--2--2--2--2--|--4----4--4----4--5----|--5--5----5--5--5--5--5--|


  >               >                                 >               >                               
  Q    E  Q    E  Q       E  Q    E  E  E  E  E     Q    E  Q    E  Q       E  Q    E  E  E  E  E   
-----------------------|-------------------------|-----------------------|-------------------------|
-----------------------|-------------------------|-----------------------|-------------------------|
-----------------------|-------------------------|-----------------------|-------------------------|
--3----3--3----3--4----|--4--4----4--4--4--4--4--|--6----6--6----6--8----|--8--8----8--8--8--8--8--|
--3----3--3----3--4----|--4--4----4--4--4--4--4--|--6----6--6----6--8----|--8--8----8--8--8--8--8--|
--1----1--1----1--2----|--2--2----2--2--2--2--2--|--4----4--4----4--6----|--6--6----6--6--6--6--6--|


  >               >                                 >                        
  Q    E  Q    E  Q       E  Q    E  E  E  E  E     E  E  E  E  E  E  E  E   
-----------------------|-------------------------|--------------------------|
-----------------------|-------------------------|--------------------------|
-----------------------|-------------------------|--------------------------|
--3----3--3----3--4----|--4--4----4--4--4--4--4--|--6--6--6--6--6--6--6--6--|
--3----3--3----3--4----|--4--4----4--4--4--4--4--|--6--6--6--6--6--6--6--6--|
--1----1--1----1--2----|--2--2----2--2--2--2--2--|--4--4--4--4--4--4--4--4--|


                                                                    |----3----|     
  E  E  E  E  E  E  E  E     E  E  E  E  E  E  E  E     E  E  E  E  Q    Q    Q     
--------------------------|--------------------------|-----------------------------|
--------------------------|--------------------------|-----------------------------|
--------------------------|--------------------------|-----------------------------|
--6--6--6--6--6--6--6--6--|--6--6--6--6--6--6--6--6--|--6--6--6--6--6----6----6----|
--6--6--6--6--6--6--6--6--|--6--6--6--6--6--6--6--6--|--6--6--6--6--6----6----6----|
--4--4--4--4--4--4--4--4--|--4--4--4--4--4--4--4--4--|--4--4--4--4--4----4----4----|


  Q    E  E  Q       Q    Q    Q       Q    E  E  Q       Q    E  E  Q       Q    E  E  Q     
------------------|-----------------|------------------|------------------|------------------|
-------6--5--6----|-------7----6----|------------------|------------------|-------6--5--6----|
-------6--5--6----|-----------------|-------6--5--6----|-------6--5--6----|-------6--5--6----|
------------------|-----------------|------------------|------------------|------------------|
------------------|-----------------|------------------|------------------|------------------|
------------------|-----------------|------------------|------------------|------------------|


  Q    Q    Q       Q    E  E  E  E     H.               Q    E  E  Q       Q    Q    Q     
-----------------|-------------------|----------------|------------------|-----------------|
-------7----6----|-------6--5--6--5--|--6-------------|-------6--5--6----|-------7----6----|
-----------------|-------6--5--6--5--|--6~------------|-------6--5--6----|-----------------|
-----------------|-------------------|----------------|------------------|-----------------|
-----------------|-------------------|----------------|------------------|-----------------|
-----------------|-------------------|----------------|------------------|-----------------|


  Q    E  E  Q       Q    E  E  Q       Q    E  E  Q       Q    Q    Q       Q    E  E  E  E   
------------------|------------------|------------------|-----------------|-------------------|
------------------|------------------|-------6--5--6----|-------7----6----|-------6--5--6--5--|
-------6--5--6----|-------6--5--6----|-------6--5--6----|-----------------|-------6--5--6--5--|
------------------|------------------|------------------|-----------------|-------------------|
------------------|------------------|------------------|-----------------|-------------------|
------------------|------------------|------------------|-----------------|-------------------|


  H.            Q       Q    E  E  E  E  E  E     E  E  E  E  E  E  E  E   
---------------------|-------------------------|--------------------------|
--6------------------|-------------------------|--------------------------|
--6~-----------------|----------------------6--|--L--6--6--6--6--6--6--8--|
---------------------|--8----8--8--8--8--8--6--|--L--6--6--6--6--6--6--8--|
---------------------|--8----8--8--8--8--8--4--|--L--4--4--4--4--4--4--6--|
---------------------|--6----6--6--6--6--6-----|--------------------------|


  E  E  E  E  E  E  E   E      E   E   E   E   E   E   E   E      E   E   E   E   E   E   E   E   
---------------------------|----------------------------------|----------------------------------|
---------------------------|----------------------------------|----------------------------------|
--L--8--8--8--8--8--8--10--|---L--10--10--10--10--10--10--11--|---L--11--11--11--11--11--11--10--|
--L--8--8--8--8--8--8--10--|---L--10--10--10--10--10--10--11--|---L--11--11--11--11--11--11--10--|
--L--6--6--6--6--6--6---8--|---L---8---8---8---8---8---8---9--|---L---9---9---9---9---9---9---8--|
---------------------------|----------------------------------|----------------------------------|


   E   E   E   E   E   E   E   E     Q    E  E  E  E  E  E     E  E  E  E  E  E  E  E   
----------------------------------|-------------------------|--------------------------|
----------------------------------|-------------------------|--------------------------|
---L--10--10--10--10--10--10--10--|----------------------6--|--L--6--6--6--6--6--6-----|
---L--10--10--10--10--10--10--10--|--8----8--8--8--8--8--6--|--L--6--6--6--6--6--6--4--|
---L---8---8---8---8---8---8---8--|--8----8--8--8--8--8--4--|--L--4--4--4--4--4--4--4--|
----------------------------------|--6----6--6--6--6--6-----|-----------------------2--|


  E  E  E  E  E  E  E  E     E  E  E  E  E  E  E  E     E  E  E  E  E  E  E  E   
--------------------------|--------------------------|--------------------------|
--------------------------|--------------------------|--------------------------|
--------------------------|--------------------------|--------------------------|
--L--4--4--4--4--4--4--7--|--L--7--7--7--7--7--7--6--|--L--6--6--6--6--6--6--8--|
--L--4--4--4--4--4--4--7--|--L--7--7--7--7--7--7--6--|--L--6--6--6--6--6--6--8--|
--L--2--2--2--2--2--2--5--|--L--5--5--5--5--5--5--4--|--L--4--4--4--4--4--4--6--|


  E  E  E  E  E  E  E  E     Q    E  E  E  E  E  E     E  E  E  E  E  E  E  E   
--------------------------|-------------------------|--------------------------|
--------------------------|-------------------------|--------------------------|
--------------------------|-------------------------|--------------------------|
--L--8--8--8--8--8--8--8--|--4----4--4--4--4--4--7--|--L--7--7--7--7--7--7--6--|
--L--8--8--8--8--8--8--8--|--4----4--4--4--4--4--7--|--L--7--7--7--7--7--7--6--|
--L--6--6--6--6--6--6--6--|--2----2--2--2--2--2--5--|--L--5--5--5--5--5--5--4--|


  E  E  E  E  E  E  E  E     E  E  E  E  E  E  E  E     Q    Q    Q    E  E   
--------------------------|--------------------------|-----------------------|
--------------------------|--------------------------|-----------------------|
--------------------------|--------------------------|--------------------6--|
--L--6--6--6--6--6--6--7--|--7--7--7--7--7--7--7--7--|--8-----------------6--|
--L--6--6--6--6--6--6--6--|--6--6--6--6--6--6--6--6--|--8-----------------4--|
--L--4--4--4--4--4--4--5--|--5--5--5--5--5--5--5--5--|--6--------------------|


               3                                                                                  
  E  Q    Q    Q.     E     Q    Q    Q    E  E     E  Q    Q    Q    E     Q.     Q    E  E  E   
-------------------------|-----------------------|-----------------------|-----------------------|
-------------------------|-----------------------|-----------------------|-----------------------|
-----6----6--------------|-----------------------|-----------------------|--------------------6--|
-----6----6--------------|--4-----------------3--|--L--3----3------------|--8------8----8--8--6--|
--L--4----4--------------|--4-----------------3--|--L--3----3------------|--8------8----8--8--4--|
-------------------------|--2-----------------1--|--L--1----1------------|--6------6----6--6-----|


  E  Q    Q    Q.        E  Q    Q    Q    E     E  E  E  E  E  E  E  E   
----------------------|-----------------------|--------------------------|
----------------------|-----------------------|--------------------------|
--L--6----6----6------|-----------------------|--------------------------|
--L--6----6----6------|--4--4----4----4----3--|-----4-----3-----4-----3--|
--L--4----4----4------|--4--4----4----4----3--|-----4-----3-----4-----3--|
----------------------|--2--2----2----2----1--|-----2-----1-----2-----1--|


  E  E  E  E  E  E  E  E     Q    E  E  E  E  E  E     E  E  E  E  E  E  E  E   
--------------------------|-------------------------|--------------------------|
--------------------------|-------------------------|--------------------------|
--------------------------|-------------------------|--------------------------|
-----4-----3-----4-----3--|--L----3--3--3--3--3--3--|--7--7--7--7--7--7--7--7--|
-----4-----3-----4-----3--|--L----3--3--3--3--3--3--|--6--6--6--6--6--6--6--6--|
-----2-----1-----2-----1--|--L----1--1--1--1--1--1--|--5--5--5--5--5--5--5--5--|


  H.           Q       W                   Q.     Q.     Q       W                 
--------------------|-------------------|---------------------|-------------------|
--------------------|-------------------|---------------------|-------------------|
--------------------|-------------------|---------------------|-------------------|
--3------------4----|--L----------------|--6------6------8----|--L----------------|
--3------------4----|--L----------------|--6------6------8----|--L----------------|
--1------------2----|--L----------------|--4------4------6----|--L----------------|


  >               >                                 >               >                               
  Q    E  Q    E  Q       E  Q    E  E  E  E  E     Q    E  Q    E  Q       E  Q    E  E  E  E  E   
-----------------------|-------------------------|-----------------------|-------------------------|
-----------------------|-------------------------|-----------------------|-------------------------|
-----------------------|-------------------------|-----------------------|-------------------------|
--3----3--3----3--4----|--4--4----4--4--4--4--4--|--6----6--6----6--7----|--7--7----7--7--7--7--7--|
--3----3--3----3--4----|--4--4----4--4--4--4--4--|--6----6--6----6--7----|--7--7----7--7--7--7--7--|
--1----1--1----1--2----|--2--2----2--2--2--2--2--|--4----4--4----4--5----|--5--5----5--5--5--5--5--|


  >               >                                 >               >                               
  Q    E  Q    E  Q       E  Q    E  E  E  E  E     Q    E  Q    E  Q       E  Q    E  E  E  E  E   
-----------------------|-------------------------|-----------------------|-------------------------|
-----------------------|-------------------------|-----------------------|-------------------------|
-----------------------|-------------------------|-----------------------|-------------------------|
--3----3--3----3--4----|--4--4----4--4--4--4--4--|--6----6--6----6--8----|--8--8----8--8--8--8--8--|
--3----3--3----3--4----|--4--4----4--4--4--4--4--|--6----6--6----6--8----|--8--8----8--8--8--8--8--|
--1----1--1----1--2----|--2--2----2--2--2--2--2--|--4----4--4----4--6----|--6--6----6--6--6--6--6--|


  >               >                                 >                        
  Q    E  Q    E  Q       E  Q    E  E  E  E  E     E  E  E  E  E  E  E  E   
-----------------------|-------------------------|--------------------------|
-----------------------|-------------------------|--------------------------|
-----------------------|-------------------------|--------------------------|
--3----3--3----3--4----|--4--4----4--4--4--4--4--|--6--6--6--6--6--6--6--6--|
--3----3--3----3--4----|--4--4----4--4--4--4--4--|--6--6--6--6--6--6--6--6--|
--1----1--1----1--2----|--2--2----2--2--2--2--2--|--4--4--4--4--4--4--4--4--|


  E  E  E  E  E  E  E  E     E  E  E  E  E  E  E  E     W.               H.            
--------------------------|--------------------------|--------------------------------|
--------------------------|--------------------------|--------------------------------|
--------------------------|--------------------------|--------------------------------|
--6--6--6--6--6--6--6--6--|--6--6--6--6--6--6--6--6--|--------------------------------|
--6--6--6--6--6--6--6--6--|--6--6--6--6--6--6--6--6--|--------------------------------|
--4--4--4--4--4--4--4--4--|--4--4--4--4--4--4--4--4--|--------------------------------|


  Q    E  E  E  E  E  E     E  E  E  E  E  E  E  E     E  E  E  E  E  E  E  E   
-------------------------|--------------------------|--------------------------|
-------------------------|--------------------------|--------------------------|
----------------------6--|--L--6--6--6--6--6--6--8--|--L--8--8--8--8--8--8-----|
--8----8--8--8--8--8--6--|--L--6--6--6--6--6--6--8--|--L--8--8--8--8--8--8--6--|
--8----8--8--8--8--8--4--|--L--4--4--4--4--4--4--6--|--L--6--6--6--6--6--6--6--|
--6----6--6--6--6--6-----|--------------------------|-----------------------4--|


  E  E  E  E  E  E  E  E     E  E  E  E  E  E  E  E     E  E  E  E  E  E  E  E   
--------------------------|--------------------------|--------------------------|
--------------------------|--------------------------|--------------------------|
--L-----------------------|-----------------------6--|--L--6--6--6--6--6--6--8--|
--L--6--6--6--6--6--6--8--|--L--8--8--8--8--8--8--6--|--L--6--6--6--6--6--6--8--|
--L--6--6--6--6--6--6--8--|--L--8--8--8--8--8--8--4--|--L--4--4--4--4--4--4--6--|
--L--4--4--4--4--4--4--6--|--L--6--6--6--6--6--6-----|--------------------------|


  E  E  E  E  E  E  E  E     E  E  E  E  E  E  E  E     Q    Q    Q    E  E     W                  
--------------------------|--------------------------|-----------------------|-------------------||
--------------------------|--------------------------|-----------------------|-------------------||
--L--8--8--8--8--8--8-----|--------------------------|-----------------------|-------------------||
--L--8--8--8--8--8--8--6--|--L--6--6--6--6--6--6--6--|-----------------6--8--|--L----------------||
--L--6--6--6--6--6--6--6--|--L--6--6--6--6--6--6--6--|-----------------6--8--|--L----------------||
-----------------------4--|--L--4--4--4--4--4--4--4--|-----------------4--6--|--L----------------||

Guitar 4



     W                   Q    E  Q    E  Q       E  E  E  E  E  E  E  E     Q    E  E  E  E  E  E   
E||-------------------|-----------------------|--------------------------|-------------------------|
B||-------------------|-----------------------|--------------------------|-------------------------|
G||-------------------|----------6-------8----|--------------------------|----------------------6--|
D||-------------------|--8-------6-------8----|-----6--6--6--6--6--6--6--|--8----8--8--8--8--8--6--|
A||-------------------|--8-------4-------6----|-----6--6--6--6--6--6--6--|--8----8--8--8--8--8--4--|
E||-------------------|--6--------------------|-----4--4--4--4--4--4--4--|--6----6--6--6--6--6-----|


  E  E  E  E  E  E  E  E     Q    E  E  E  E  E   E      E   E   E   E   E   E   E   E   
--------------------------|--------------------------|----------------------------------|
--------------------------|--------------------------|----------------------------------|
--L--6--6--6--6--6--6--6--|--8----8--8--8--8--8--10--|---L--10--10--10--10--10--10--10--|
--L--6--6--6--6--6--6--6--|--8----8--8--8--8--8--10--|---L--10--10--10--10--10--10--10--|
--L--4--4--4--4--4--4--4--|--6----6--6--6--6--6---8--|---L---8---8---8---8---8---8---8--|
--------------------------|--------------------------|----------------------------------|


  Q    E  E  E  E  E  E     E  E  E  E  E  E  E  E     Q    E  E  E  E  E  E   
-------------------------|--------------------------|-------------------------|
-------------------------|--------------------------|-------------------------|
----------------------6--|--L--6--6--6--6--6--6--6--|--8----8--8--8--8--8-----|
--8----8--8--8--8--8--6--|--L--6--6--6--6--6--6--6--|--8----8--8--8--8--8--6--|
--8----8--8--8--8--8--4--|--L--4--4--4--4--4--4--4--|--6----6--6--6--6--6--6--|
--6----6--6--6--6--6-----|--------------------------|----------------------4--|


  E  E  E  E  E  E  E  E     W                   W                   W                 
--------------------------|-------------------|-------------------|-------------------|
--------------------------|-------------------|-------------------|-------------------|
--------------------------|-------------------|-------------------|-------------------|
--L--6--6--6--------------|--8----------------|-------------------|--8----------------|
--L--6--6--6--------------|--8----------------|-------------------|--8----------------|
--L--4--4--4--------------|--6----------------|-------------------|--6----------------|


  W                   Q    E  E  E  E  E  E     Q    E  E  E  E  E  E     Q    E  E  E  E  E  E   
-------------------|-------------------------|-------------------------|-------------------------|
-------------------|-------------------------|-------------------------|-------------------------|
-------------------|-------------------------|-------------------------|--8----8--8--8--8--8--8--|
-------------------|--4----4--4--4--4--4--4--|--4----4--4--4--4--4--4--|--8----8--8--8--8--8--8--|
-------------------|--4----4--4--4--4--4--4--|--4----4--4--4--4--4--4--|--6----6--6--6--6--6--6--|
-------------------|--2----2--2--2--2--2--2--|--2----2--2--2--2--2--2--|-------------------------|


  Q    E  E  E  E  E  E     W                   W                   W                 
-------------------------|-------------------|-------------------|-------------------|
-------------------------|-------------------|-------------------|-------------------|
-------------------------|-------------------|-------------------|-------------------|
--6----6--6--6--6--6--6--|--8----------------|-------------------|--8----------------|
--6----6--6--6--6--6--6--|--8----------------|-------------------|--8----------------|
--4----4--4--4--4--4--4--|--6----------------|-------------------|--6----------------|


  W                   Q    E  E  E  E  E  E     Q    E  E  E  E  E  E     Q    E  E  E  E  E  E   
-------------------|-------------------------|-------------------------|-------------------------|
-------------------|-------------------------|-------------------------|-------------------------|
-------------------|-------------------------|-------------------------|--8----8--8--8--8--8--8--|
-------------------|--4----4--4--4--4--4--4--|--4----4--4--4--4--4--4--|--8----8--8--8--8--8--8--|
-------------------|--4----4--4--4--4--4--4--|--4----4--4--4--4--4--4--|--6----6--6--6--6--6--6--|
-------------------|--2----2--2--2--2--2--2--|--2----2--2--2--2--2--2--|-------------------------|


   Q     E   E   E   E   E   E     W                   W                   W                 
--------------------------------|-------------------|-------------------|-------------------|
--------------------------------|-------------------|-------------------|-------------------|
--10----10--10--10--10--10--10--|-------------------|-------------------|-------------------|
--10----10--10--10--10--10--10--|-------------------|-------------------|-------------------|
---8-----8---8---8---8---8---8--|-------------------|-------------------|-------------------|
--------------------------------|-------------------|-------------------|-------------------|


  W                   W                   W                   W                   W                 
-------------------|-------------------|-------------------|-------------------|-------------------|
-------------------|-------------------|-------------------|-------------------|-------------------|
-------------------|-------------------|-------------------|-------------------|-------------------|
-------------------|-------------------|-------------------|-------------------|-------------------|
-------------------|-------------------|-------------------|-------------------|-------------------|
-------------------|-------------------|-------------------|-------------------|-------------------|


  W                   W                   W                   W                   W                 
-------------------|-------------------|-------------------|-------------------|-------------------|
-------------------|-------------------|-------------------|-------------------|-------------------|
-------------------|-------------------|-------------------|-------------------|-------------------|
-------------------|-------------------|-------------------|-------------------|-------------------|
-------------------|-------------------|-------------------|-------------------|-------------------|
-------------------|-------------------|-------------------|-------------------|-------------------|


                                                              >               >     
  W                   W                   W                   Q    E  Q    E  Q     
-------------------|-------------------|-------------------|-----------------------|
-------------------|-------------------|-------------------|-----------------------|
-------------------|-------------------|-------------------|-----------------------|
-------------------|-------------------|-------------------|--3----3--3----3--4----|
-------------------|-------------------|-------------------|--3----3--3----3--4----|
-------------------|-------------------|-------------------|--1----1--1----1--2----|


                            >               >                                 >               >     
  E  Q    E  E  E  E  E     Q    E  Q    E  Q       E  Q    E  E  E  E  E     Q    E  Q    E  Q     
-------------------------|-----------------------|-------------------------|-----------------------|
-------------------------|-----------------------|-------------------------|-----------------------|
-------------------------|-----------------------|-------------------------|-----------------------|
--4--4----4--4--4--4--4--|--6----6--6----6--8----|--8--8----8--8--8--8--8--|--3----3--3----3--4----|
--4--4----4--4--4--4--4--|--6----6--6----6--8----|--8--8----8--8--8--8--8--|--3----3--3----3--4----|
--2--2----2--2--2--2--2--|--4----4--4----4--6----|--6--6----6--6--6--6--6--|--1----1--1----1--2----|


                            >               >                                 >               >     
  E  Q    E  E  E  E  E     Q    E  Q    E  Q       E  Q    E  E  E  E  E     Q    E  Q    E  Q     
-------------------------|-----------------------|-------------------------|-----------------------|
-------------------------|-----------------------|-------------------------|-----------------------|
-------------------------|-----------------------|-------------------------|-----------------------|
--4--4----4--4--4--4--4--|--6----6--6----6--7----|--7--7----7--7--7--7--7--|--3----3--3----3--4----|
--4--4----4--4--4--4--4--|--6----6--6----6--7----|--7--7----7--7--7--7--7--|--3----3--3----3--4----|
--2--2----2--2--2--2--2--|--4----4--4----4--5----|--5--5----5--5--5--5--5--|--1----1--1----1--2----|


                            >               >                                 >               >     
  E  Q    E  E  E  E  E     Q    E  Q    E  Q       E  Q    E  E  E  E  E     Q    E  Q    E  Q     
-------------------------|-----------------------|-------------------------|-----------------------|
-------------------------|-----------------------|-------------------------|-----------------------|
-------------------------|-----------------------|-------------------------|-----------------------|
--4--4----4--4--4--4--4--|--6----6--6----6--8----|--8--8----8--8--8--8--8--|--3----3--3----3--4----|
--4--4----4--4--4--4--4--|--6----6--6----6--8----|--8--8----8--8--8--8--8--|--3----3--3----3--4----|
--2--2----2--2--2--2--2--|--4----4--4----4--6----|--6--6----6--6--6--6--6--|--1----1--1----1--2----|


                            >                                                   
  E  Q    E  E  E  E  E     E  E  E  E  E  E  E  E     E  E  E  E  E  E  E  E   
-------------------------|--------------------------|--------------------------|
-------------------------|--------------------------|--------------------------|
-------------------------|--------------------------|--------------------------|
--4--4----4--4--4--4--4--|--6--6--6--6--6--6--6--6--|--6--6--6--6--6--6--6--6--|
--4--4----4--4--4--4--4--|--6--6--6--6--6--6--6--6--|--6--6--6--6--6--6--6--6--|
--2--2----2--2--2--2--2--|--4--4--4--4--4--4--4--4--|--4--4--4--4--4--4--4--4--|


  E  E  E  E  E  E  E  E     W.               H.              Q    E  E  E  E  E  E   
--------------------------|--------------------------------|-------------------------|
--------------------------|--------------------------------|-------------------------|
--------------------------|--------------------------------|----------------------6--|
--6--6--6--6--6--6--6--6--|--------------------------------|--8----8--8--8--8--8--6--|
--6--6--6--6--6--6--6--6--|--------------------------------|--8----8--8--8--8--8--4--|
--4--4--4--4--4--4--4--4--|--------------------------------|--6----6--6--6--6--6-----|


  E  E  E  E  E  E  E  E     Q    E  E  E  E  E   E      E   E   E   E   E   E   E   E   
--------------------------|--------------------------|----------------------------------|
--------------------------|--------------------------|----------------------------------|
--L--6--6--6--6--6--6--6--|--8----8--8--8--8--8--10--|---L--10--10--10--10--10--10--10--|
--L--6--6--6--6--6--6--6--|--8----8--8--8--8--8--10--|---L--10--10--10--10--10--10--10--|
--L--4--4--4--4--4--4--4--|--6----6--6--6--6--6---8--|---L---8---8---8---8---8---8---8--|
--------------------------|--------------------------|----------------------------------|


  Q    E  E  E  E  E  E     E  E  E  E  E  E  E  E     Q    E  E  E  E  E  E   
-------------------------|--------------------------|-------------------------|
-------------------------|--------------------------|-------------------------|
----------------------6--|--L--6--6--6--6--6--6--6--|--8----8--8--8--8--8-----|
--8----8--8--8--8--8--6--|--L--6--6--6--6--6--6--6--|--8----8--8--8--8--8--6--|
--8----8--8--8--8--8--4--|--L--4--4--4--4--4--4--4--|--6----6--6--6--6--6--6--|
--6----6--6--6--6--6-----|--------------------------|----------------------4--|


  E  E  E  E  E  E  E  E     W                   W                   W                 
--------------------------|-------------------|-------------------|-------------------|
--------------------------|-------------------|-------------------|-------------------|
--------------------------|-------------------|-------------------|-------------------|
--L--6--6--3--------------|--8----------------|-------------------|--8----------------|
--L--6--6--3--------------|--8----------------|-------------------|--8----------------|
--L--4--4--1--------------|--6----------------|-------------------|--6----------------|


  W                   Q    E  E  E  E  E  E     Q    E  E  E  E  E  E     Q    E  E  E  E  E  E   
-------------------|-------------------------|-------------------------|-------------------------|
-------------------|-------------------------|-------------------------|-------------------------|
-------------------|-------------------------|-------------------------|--8----8--8--8--8--8--8--|
-------------------|--4----4--4--4--4--4--4--|--4----4--4--4--4--4--4--|--8----8--8--8--8--8--8--|
-------------------|--4----4--4--4--4--4--4--|--4----4--4--4--4--4--4--|--6----6--6--6--6--6--6--|
-------------------|--2----2--2--2--2--2--2--|--2----2--2--2--2--2--2--|-------------------------|


  Q    E  E  E  E  E  E     W                   W                   W                 
-------------------------|-------------------|-------------------|-------------------|
-------------------------|-------------------|-------------------|-------------------|
-------------------------|-------------------|-------------------|-------------------|
--6----6--6--6--6--6--6--|--8----------------|-------------------|--8----------------|
--6----6--6--6--6--6--6--|--8----------------|-------------------|--8----------------|
--4----4--4--4--4--4--4--|--6----------------|-------------------|--6----------------|


  W                   Q    E  E  E  E  E  E     Q    E  E  E  E  E  E     Q    E  E  E  E  E  E   
-------------------|-------------------------|-------------------------|-------------------------|
-------------------|-------------------------|-------------------------|-------------------------|
-------------------|-------------------------|-------------------------|--8----8--8--8--8--8--8--|
-------------------|--4----4--4--4--4--4--4--|--4----4--4--4--4--4--4--|--8----8--8--8--8--8--8--|
-------------------|--4----4--4--4--4--4--4--|--4----4--4--4--4--4--4--|--6----6--6--6--6--6--6--|
-------------------|--2----2--2--2--2--2--2--|--2----2--2--2--2--2--2--|-------------------------|


   Q     E   E   E   E   E   E     W                   W                   W                 
--------------------------------|-------------------|-------------------|-------------------|
--------------------------------|-------------------|-------------------|-------------------|
--10----10--10--10--10--10--10--|-------------------|-------------------|-------------------|
--10----10--10--10--10--10--10--|-------------------|-------------------|-------------------|
---8-----8---8---8---8---8---8--|-------------------|-------------------|-------------------|
--------------------------------|-------------------|-------------------|-------------------|


  W                   W                   W                   W                   W                 
-------------------|-------------------|-------------------|-------------------|-------------------|
-------------------|-------------------|-------------------|-------------------|-------------------|
-------------------|-------------------|-------------------|-------------------|-------------------|
-------------------|-------------------|-------------------|-------------------|-------------------|
-------------------|-------------------|-------------------|-------------------|-------------------|
-------------------|-------------------|-------------------|-------------------|-------------------|


  W                   W                   W                   W                   W                 
-------------------|-------------------|-------------------|-------------------|-------------------|
-------------------|-------------------|-------------------|-------------------|-------------------|
-------------------|-------------------|-------------------|-------------------|-------------------|
-------------------|-------------------|-------------------|-------------------|-------------------|
-------------------|-------------------|-------------------|-------------------|-------------------|
-------------------|-------------------|-------------------|-------------------|-------------------|


                                                              >               >     
  W                   W                   W                   Q    E  Q    E  Q     
-------------------|-------------------|-------------------|-----------------------|
-------------------|-------------------|-------------------|-----------------------|
-------------------|-------------------|-------------------|-----------------------|
-------------------|-------------------|-------------------|--3----3--3----3--4----|
-------------------|-------------------|-------------------|--3----3--3----3--4----|
-------------------|-------------------|-------------------|--1----1--1----1--2----|


                            >               >                                 >               >     
  E  Q    E  E  E  E  E     Q    E  Q    E  Q       E  Q    E  E  E  E  E     Q    E  Q    E  Q     
-------------------------|-----------------------|-------------------------|-----------------------|
-------------------------|-----------------------|-------------------------|-----------------------|
-------------------------|-----------------------|-------------------------|-----------------------|
--4--4----4--4--4--4--4--|--6----6--6----6--8----|--8--8----8--8--8--8--8--|--3----3--3----3--4----|
--4--4----4--4--4--4--4--|--6----6--6----6--8----|--8--8----8--8--8--8--8--|--3----3--3----3--4----|
--2--2----2--2--2--2--2--|--4----4--4----4--6----|--6--6----6--6--6--6--6--|--1----1--1----1--2----|


                            >               >                                 >               >     
  E  Q    E  E  E  E  E     Q    E  Q    E  Q       E  Q    E  E  E  E  E     Q    E  Q    E  Q     
-------------------------|-----------------------|-------------------------|-----------------------|
-------------------------|-----------------------|-------------------------|-----------------------|
-------------------------|-----------------------|-------------------------|-----------------------|
--4--4----4--4--4--4--4--|--6----6--6----6--7----|--7--7----7--7--7--7--7--|--3----3--3----3--4----|
--4--4----4--4--4--4--4--|--6----6--6----6--7----|--7--7----7--7--7--7--7--|--3----3--3----3--4----|
--2--2----2--2--2--2--2--|--4----4--4----4--5----|--5--5----5--5--5--5--5--|--1----1--1----1--2----|


                            >               >                                 >               >     
  E  Q    E  E  E  E  E     Q    E  Q    E  Q       E  Q    E  E  E  E  E     Q    E  Q    E  Q     
-------------------------|-----------------------|-------------------------|-----------------------|
-------------------------|-----------------------|-------------------------|-----------------------|
-------------------------|-----------------------|-------------------------|-----------------------|
--4--4----4--4--4--4--4--|--6----6--6----6--8----|--8--8----8--8--8--8--8--|--3----3--3----3--4----|
--4--4----4--4--4--4--4--|--6----6--6----6--8----|--8--8----8--8--8--8--8--|--3----3--3----3--4----|
--2--2----2--2--2--2--2--|--4----4--4----4--6----|--6--6----6--6--6--6--6--|--1----1--1----1--2----|


                            >                                                   
  E  Q    E  E  E  E  E     E  E  E  E  E  E  E  E     E  E  E  E  E  E  E  E   
-------------------------|--------------------------|--------------------------|
-------------------------|--------------------------|--------------------------|
-------------------------|--------------------------|--------------------------|
--4--4----4--4--4--4--4--|--6--6--6--6--6--6--6--6--|--6--6--6--6--6--6--6--6--|
--4--4----4--4--4--4--4--|--6--6--6--6--6--6--6--6--|--6--6--6--6--6--6--6--6--|
--2--2----2--2--2--2--2--|--4--4--4--4--4--4--4--4--|--4--4--4--4--4--4--4--4--|


                                         |----3----|                                     
  E  E  E  E  E  E  E  E     E  E  E  E  Q    Q    Q       H.              H.            
--------------------------|-----------------------------|---------------|---------------|
--------------------------|-----------------------------|---------------|---------------|
--------------------------|-----------------------------|---------------|---------------|
--6--6--6--6--6--6--6--6--|--6--6--6--6--6----6----6----|---------------|---------------|
--6--6--6--6--6--6--6--6--|--6--6--6--6--6----6----6----|---------------|---------------|
--4--4--4--4--4--4--4--4--|--4--4--4--4--4----4----4----|--2------------|--1------------|


  H.              H.              H.              H.              H.              H.            
---------------|---------------|---------------|---------------|---------------|---------------|
---------------|---------------|---------------|---------------|---------------|---------------|
---------------|---------------|---------------|---------------|---------------|---------------|
---------------|---------------|---------------|---------------|---------------|---------------|
--6------------|--L------------|--9------------|--8------------|--6------------|--L------------|
---------------|---------------|---------------|---------------|---------------|---------------|


  H.              H.              H.              H.              H.              H.            
---------------|---------------|---------------|---------------|---------------|---------------|
---------------|---------------|---------------|---------------|---------------|---------------|
---------------|---------------|---------------|---------------|---------------|---------------|
---------------|---------------|---------------|---------------|---------------|---------------|
---------------|---------------|--6------------|--L------------|--9------------|--8------------|
--2------------|--1------------|---------------|---------------|---------------|---------------|


  H.              W                   Q    E  E  E  E  E  E     E  E  E  E  E  E  E  E   
---------------|-------------------|-------------------------|--------------------------|
---------------|-------------------|-------------------------|--------------------------|
---------------|-------------------|----------------------6--|--L--6--6--6--6--6--6--8--|
---------------|-------------------|--8----8--8--8--8--8--6--|--L--6--6--6--6--6--6--8--|
--6------------|-------------------|--8----8--8--8--8--8--4--|--L--4--4--4--4--4--4--6--|
---------------|-------------------|--6----6--6--6--6--6-----|--------------------------|


  E  E  E  E  E  E  E   E      E   E   E   E   E   E   E   E      E   E   E   E   E   E   E   E   
---------------------------|----------------------------------|----------------------------------|
---------------------------|----------------------------------|----------------------------------|
--L--8--8--8--8--8--8--10--|---L--10--10--10--10--10--10--11--|---L--11--11--11--11--11--11--10--|
--L--8--8--8--8--8--8--10--|---L--10--10--10--10--10--10--11--|---L--11--11--11--11--11--11--10--|
--L--6--6--6--6--6--6---8--|---L---8---8---8---8---8---8---9--|---L---9---9---9---9---9---9---8--|
---------------------------|----------------------------------|----------------------------------|


   E   E   E   E   E   E   E   E     Q    E  E  E  E  E  E     E  E  E  E  E  E  E  E   
----------------------------------|-------------------------|--------------------------|
----------------------------------|-------------------------|--------------------------|
---L--10--10--10--10--10--10--10--|----------------------6--|--L--6--6--6--6--6--6-----|
---L--10--10--10--10--10--10--10--|--8----8--8--8--8--8--6--|--L--6--6--6--6--6--6--4--|
---L---8---8---8---8---8---8---8--|--8----8--8--8--8--8--4--|--L--4--4--4--4--4--4--4--|
----------------------------------|--6----6--6--6--6--6-----|-----------------------2--|


  E  E  E  E  E  E  E  E     E  E  E  E  E  E  E  E     E  E  E  E  E  E  E  E   
--------------------------|--------------------------|--------------------------|
--------------------------|--------------------------|--------------------------|
--------------------------|--------------------------|--------------------------|
--L--4--4--4--4--4--4--7--|--L--7--7--7--7--7--7--6--|--L--6--6--6--6--6--6--8--|
--L--4--4--4--4--4--4--7--|--L--7--7--7--7--7--7--6--|--L--6--6--6--6--6--6--8--|
--L--2--2--2--2--2--2--5--|--L--5--5--5--5--5--5--4--|--L--4--4--4--4--4--4--6--|


  E  E  E  E  E  E  E  E     Q    E  E  E  E  E  E     E  E  E  E  E  E  E  E   
--------------------------|-------------------------|--------------------------|
--------------------------|-------------------------|--------------------------|
--------------------------|-------------------------|--------------------------|
--L--8--8--8--8--8--8--8--|--4----4--4--4--4--4--7--|--L--7--7--7--7--7--7--6--|
--L--8--8--8--8--8--8--8--|--4----4--4--4--4--4--7--|--L--7--7--7--7--7--7--6--|
--L--6--6--6--6--6--6--6--|--2----2--2--2--2--2--5--|--L--5--5--5--5--5--5--4--|


  E  E  E  E  E  E  E  E     E  E  E  E  E  E  E  E     Q    Q    Q    E  E   
--------------------------|--------------------------|-----------------------|
--------------------------|--------------------------|-----------------------|
--------------------------|--------------------------|--------------------6--|
--L--6--6--6--6--6--6--7--|--7--7--7--7--7--7--7--7--|--8-----------------6--|
--L--6--6--6--6--6--6--6--|--6--6--6--6--6--6--6--6--|--8-----------------4--|
--L--4--4--4--4--4--4--5--|--5--5--5--5--5--5--5--5--|--6--------------------|


               3                                                                                  
  E  Q    Q    Q.     E     Q    Q    Q    E  E     E  Q    Q    Q    E     Q.     Q    E  E  E   
-------------------------|-----------------------|-----------------------|-----------------------|
-------------------------|-----------------------|-----------------------|-----------------------|
-----6----6--------------|-----------------------|-----------------------|--------------------6--|
-----6----6--------------|--4-----------------3--|--L--3----3------------|--8------8----8--8--6--|
--L--4----4--------------|--4-----------------3--|--L--3----3------------|--8------8----8--8--4--|
-------------------------|--2-----------------1--|--L--1----1------------|--6------6----6--6-----|


  E  Q    Q    Q.        E  Q    Q    Q    E     E  E  E  E  E  E  E  E   
----------------------|-----------------------|--------------------------|
----------------------|-----------------------|--------------------------|
--L--6----6----6------|-----------------------|--------------------------|
--L--6----6----6------|--4--4----4----4----3--|-----4-----3-----4-----3--|
--L--4----4----4------|--4--4----4----4----3--|-----4-----3-----4-----3--|
----------------------|--2--2----2----2----1--|-----2-----1-----2-----1--|


  E  E  E  E  E  E  E  E     Q    E  E  E  E  E  E     E  E  E  E  E  E  E  E   
--------------------------|-------------------------|--------------------------|
--------------------------|-------------------------|--------------------------|
--------------------------|-------------------------|--------------------------|
-----4-----3-----4-----3--|--L----3--3--3--3--3--3--|--7--7--7--7--7--7--7--7--|
-----4-----3-----4-----3--|--L----3--3--3--3--3--3--|--6--6--6--6--6--6--6--6--|
-----2-----1-----2-----1--|--L----1--1--1--1--1--1--|--5--5--5--5--5--5--5--5--|


  H.           Q       W                   Q.     Q.     Q       W                 
--------------------|-------------------|---------------------|-------------------|
--------------------|-------------------|---------------------|-------------------|
--------------------|-------------------|---------------------|-------------------|
--3------------4----|--L----------------|--6------6------8----|--L----------------|
--3------------4----|--L----------------|--6------6------8----|--L----------------|
--1------------2----|--L----------------|--4------4------6----|--L----------------|


  >               >                                 >               >                               
  Q    E  Q    E  Q       E  Q    E  E  E  E  E     Q    E  Q    E  Q       E  Q    E  E  E  E  E   
-----------------------|-------------------------|-----------------------|-------------------------|
-----------------------|-------------------------|-----------------------|-------------------------|
-----------------------|-------------------------|-----------------------|-------------------------|
--3----3--3----3--4----|--4--4----4--4--4--4--4--|--6----6--6----6--7----|--7--7----7--7--7--7--7--|
--3----3--3----3--4----|--4--4----4--4--4--4--4--|--6----6--6----6--7----|--7--7----7--7--7--7--7--|
--1----1--1----1--2----|--2--2----2--2--2--2--2--|--4----4--4----4--5----|--5--5----5--5--5--5--5--|


  >               >                                 >               >                               
  Q    E  Q    E  Q       E  Q    E  E  E  E  E     Q    E  Q    E  Q       E  Q    E  E  E  E  E   
-----------------------|-------------------------|-----------------------|-------------------------|
-----------------------|-------------------------|-----------------------|-------------------------|
-----------------------|-------------------------|-----------------------|-------------------------|
--3----3--3----3--4----|--4--4----4--4--4--4--4--|--6----6--6----6--8----|--8--8----8--8--8--8--8--|
--3----3--3----3--4----|--4--4----4--4--4--4--4--|--6----6--6----6--8----|--8--8----8--8--8--8--8--|
--1----1--1----1--2----|--2--2----2--2--2--2--2--|--4----4--4----4--6----|--6--6----6--6--6--6--6--|


  >               >                                 >                        
  Q    E  Q    E  Q       E  Q    E  E  E  E  E     E  E  E  E  E  E  E  E   
-----------------------|-------------------------|--------------------------|
-----------------------|-------------------------|--------------------------|
-----------------------|-------------------------|--------------------------|
--3----3--3----3--4----|--4--4----4--4--4--4--4--|--6--6--6--6--6--6--6--6--|
--3----3--3----3--4----|--4--4----4--4--4--4--4--|--6--6--6--6--6--6--6--6--|
--1----1--1----1--2----|--2--2----2--2--2--2--2--|--4--4--4--4--4--4--4--4--|


  E  E  E  E  E  E  E  E     E  E  E  E  E  E  E  E     W.               H.            
--------------------------|--------------------------|--------------------------------|
--------------------------|--------------------------|--------------------------------|
--------------------------|--------------------------|--------------------------------|
--6--6--6--6--6--6--6--6--|--6--6--6--6--6--6--6--6--|--------------------------------|
--6--6--6--6--6--6--6--6--|--6--6--6--6--6--6--6--6--|--------------------------------|
--4--4--4--4--4--4--4--4--|--4--4--4--4--4--4--4--4--|--------------------------------|


  Q    E  E  E  E  E  E     E  E  E  E  E  E  E  E     E  E  E  E  E  E  E  E   
-------------------------|--------------------------|--------------------------|
-------------------------|--------------------------|--------------------------|
----------------------6--|--L--6--6--6--6--6--6--8--|--L--8--8--8--8--8--8-----|
--8----8--8--8--8--8--6--|--L--6--6--6--6--6--6--8--|--L--8--8--8--8--8--8--6--|
--8----8--8--8--8--8--4--|--L--4--4--4--4--4--4--6--|--L--6--6--6--6--6--6--6--|
--6----6--6--6--6--6-----|--------------------------|-----------------------4--|


  E  E  E  E  E  E  E  E     E  E  E  E  E  E  E  E     E  E  E  E  E  E  E  E   
--------------------------|--------------------------|--------------------------|
--------------------------|--------------------------|--------------------------|
--L-----------------------|-----------------------6--|--L--6--6--6--6--6--6--8--|
--L--6--6--6--6--6--6--8--|--L--8--8--8--8--8--8--6--|--L--6--6--6--6--6--6--8--|
--L--6--6--6--6--6--6--8--|--L--8--8--8--8--8--8--4--|--L--4--4--4--4--4--4--6--|
--L--4--4--4--4--4--4--6--|--L--6--6--6--6--6--6-----|--------------------------|


  E  E  E  E  E  E  E  E     E  E  E  E  E  E  E  E     Q    Q    Q    E  E     W                  
--------------------------|--------------------------|-----------------------|-------------------||
--------------------------|--------------------------|-----------------------|-------------------||
--L--8--8--8--8--8--8-----|--------------------------|-----------------------|-------------------||
--L--8--8--8--8--8--8--6--|--L--6--6--6--6--6--6--6--|-----------------6--8--|--L----------------||
--L--6--6--6--6--6--6--6--|--L--6--6--6--6--6--6--6--|-----------------6--8--|--L----------------||
-----------------------4--|--L--4--4--4--4--4--4--4--|-----------------4--6--|--L----------------||




Duration Legend
---------------
W - whole
H - half
Q - quarter
E - 8th
S - 16th
T - 32nd
X - 64th
. - note dotted
|-n-|  - n-tuplets


Tablature Legend
----------------
L - tied note
x - dead note
g - grace note
(n) - ghost note
> - accentuded note
NH - natural harmonic
AH - artificial harmonic
TH - tapped harmonic
SH - semi harmonic
PH - pitch harmonic
h - hammer on
p - pull off
b - bend
br - bendRelease
pb - preBend
pbr - preBendRelease
brb - bendReleaseBend
\n/ - tremolo bar dip
\n - tremolo bar dive
-/n - tremolo bar Release up
/n\ - tremolo bar inverted dip
/n - tremolo bar return
-\n - tremolo bar Release down
S - shift slide
s - legato slide
/ -  slide into from below or out of upwards
\ -  slide into from above or out of downwards
~ - vibrato
W - wide vibrato
tr - trill
TP - tremolo picking
T - tapping
S - slap
P - pop
< - fade in
^ - brush up
v - brush down


Login or Register to remove this ad.