Normal Battle ~ Town (Shin Megami Tensei III: Nocturne) Guitar Tab

Submitted: Feb 28, 2012 by Hitoshura89

5
Average: 5 (1 vote)
Download | Listen
Game: Shin Megami Tensei III: Nocturne
Composer(s): Shoji Meguro
Style: Pinch harmonics, Transcription
Series: Megami Tensei

AutoScroll: Slow | Medium | Fast
Normal Battle (Town)
Game:Shin Megami Tensei III: Nocturne
Composer: Shoji Meguro
Tabbed By: Hitoshura89
Tuning: E Standard

\=Slide Up
/=Slide Down
PH=Pinch Harmonics
*=Palm Muting


Intro

E|--------------------------------------------------|
B|--------------------------------------------------|
G|--------------------------------------------------| X2
D|------3-5----3----3--5-5-5----3---3--5-5--6--6-6--|
A|--1-1-1-3--1-1--1-1--3-3-3--1-1-1-1--3-3--4--8-8--|
E|--------------------------------------------------|
    * *

Verse

E|----------------------------------------------------------|
B|------9-8H9P8----------------9-8----4/6-------------------|
G|----6---------8-8/10--6----6-----8-------6-8----6-6--8-8--|
D|--8------------------------------------------8--6-6--8-8--|
A|------------------------------------------------4-4--6-6--|
E|----------------------------------------------------------|

E|------------------------------------------------------------|
B|------9-8----------------9-8----4/6-------------------------|
G|----6-----8-8/10--6----6-----8------6-8----6--8B10PHR8--6~--|
D|--8-------------------------------------8--6----------------|
A|-------------------------------------------4----------------|
E|------------------------------------------------------------|


Verse 2


E|---------------------------------------------------------------|
B|------9-8----------------9-8----4/6----------------------------|
G|----6-----8-8/10--6----6-----8------6-8--------6-8B10PHR8--6~--|
D|--8-------------------------------------8--6-8-----------------|
A|---------------------------------------------------------------|
E|---------------------------------------------------------------|

E|----------------------------------------------------|
B|----9-9----------------9-8----4/6-------------------|
G|--6-----8-8/10--6----6-----8-------6-8----6-6--8-8--|
D|---------------------------------------8--6-6--8-8--|
A|------------------------------------------4-4--6-6--|
E|----------------------------------------------------|


End

E|---------------------------------------------------------------|
B|---------------------------------------------------------------|
G|---------------------------------------------------------------|
D|--3-4--X-X-X-X--3/4--4--X-X-X-X--3/4--4--X-X-X-X--3/4--4-X--6--| X2
A|--1-2--X-X-X-X--1/2--2--X-X-X-X--1/2--2--X-X-X-X--1/2--2-X--4--|
E|---------------------------------------------------------------|
Login or Register to remove this ad.

1 comment on Normal Battle ~ Town

Thanks a lot, great job! Can

5

Thanks a lot, great job! Can you be the first one to do a tab of Muladhara DDS1 for guitar? That would be very, very appreciated