Boss Battle (Shin Megami Tensei III: Nocturne) Guitar Tab

Submitted: Jan 26, 2012 by Hitoshura89

5
Average: 5 (2 votes)
Download | Listen
Game: Shin Megami Tensei III: Nocturne
Composer(s): Shoji Meguro
Style: Transcription
Series: Megami Tensei

AutoScroll: Slow | Medium | Fast
Boss Battle
Game: Shin Megami Tensei III: Nocturne (PS2)
Composer: Shoji Meguro
Tabbed By: Hitoshura89
Tuning: E Standard

*=Palm Muting


Intro/Verse

E|----------------------------------------------------------------------------------------------------------------|
B|----------------------------------------------------------------------------------------------------------------|
G|----------------------------------------------------------------------------------------------------------------|
D|--8-----8-----8-----8----7-----7-----7-----7----8-----8-----8-----8---7-----7-----7-----7---8-----8-----8-----8-|
A|--7-----7-----7-----7----6-----6-----6-----6----7-----7-----7-----7---6-----6-----6-----6---7-----7-----7-----7-|
E|----0-0---0-0---0-0----0---0-0---0-0---0-0----0---0-0---0-0---0-0---0---0-0---0-0---0-0---0---0-0---0-0---0-0---|
      * *   * *   * *    *   * *   * *   * *    *   * *   * *   * *   *   * *   * *   * *   *   * *   * *   * *
     
E|------------|
B|------------|
G|------------|
D|----7-----7-|
A|----6-----6-|
E|--0---0-0---|
    *   * *


Pre-Chorus

E|-----------------------------------------------|
B|-----------------------------------------------|
G|-----------------------------------------------|
D|--6--8-8--6--8-8--6--8-8---4-6-3-4-3--2-2-2-2--|
A|--4--6-6--4--6-6--4--6-6---2-4-1-2-1--0-0-0-0--|
E|-----------------------------------------------|



Ending/Chorus (Fade Out)


E|----------------------------------------------------------------------------|
B|----------------------------------------------------------------------------|
G|----------------------------------------------------------------------------|
D|-----4--4-------------4--4----------------4--4-------------4--4-------------|
A|--6--2--2-2--4/6---6--2--2-2--7-7-7-7--6--2--2-2--4/6---6--2--2-2--7-7-7-7--|
E|--4-------0--2/4---4-------0--5-5-5-5--4-------0--2/4---4-------0--5-5-5-5--|
Login or Register to remove this ad.

1 comment on Boss Battle

Awesome. Judging by the name

5

Awesome. Judging by the name and that fact that you've only posted SMT tabs, you seem to be a fan xD Nocturne is one of the best games ever, along with SMT2 on SNES.