Battle -The Labyrinth of Amala (Shin Megami Tensei III: Nocturne) Guitar Tab

Submitted: Feb 19, 2012 by Hitoshura89

0
Download | Listen
Game: Shin Megami Tensei III: Nocturne
Composer(s): Shoji Meguro
Style: 2 or more instruments, Transcription
Series: Megami Tensei

AutoScroll: Slow | Medium | Fast
"Battle -The Labyrinth of Amala-"
Game: Shin Megami Tensei III: Nocturne (PS2)
Composer: Shoji Meguro
Tabbed by: Hitoshura89
Tuning: E Standard
2-18-12

Intro/ Main Riff for Rythym Guitar

E|-------------------|
B|-------------------|
G|-------------------|
D|--44--44--55--222--|
A|--22--22--33--000--|
E|-------------------|


And at 0:26 Lead Guitar comes in and repeats until 0:38

E|-----------------------------------------|
B|--7H8--3H5--------------7H8--3H5---------|
G|-----------------------------------------|
D|------------2--44--2-4------------2--44--|
A|------------0--22--0-2------------0--22--|
E|-----------------------------------------|

Repeat Main Riff until 0:52 

E|-------------------|
B|-------------------|
G|-------------------|
D|--44--44--55--222--|
A|--22--22--33--000--|
E|-------------------|

Lead Guitar comes in again and repeats until 1:04

E|-----------------------------------------|
B|--7H8--3H5--------------7H8--3H5---------|
G|-----------------------------------------|
D|------------2--44--2-4------------2--44--|
A|------------0--22--0-2------------0--22--|
E|-----------------------------------------|


End (Fade Out)

E|---------------------------------------------------------------------------------------------|
B|---------------------------------------------------------------------------------------------|
G|---------------------------------------------------------------------------------------------|
D|---------------------------------------------------------------------------------------------|
A|--5---------5-4---------4-3----------3-2------------5---------5-4---------4-3--------3-3--3--|
E|--3--3-3-3--3-2--2-2-2--2-1--1-1-1---1-0-0-0-0-1-2--3--3-3-3--3-2--2-2-2--2-1--1-1-1-1-1--1--| 
       * * *       * * *       * * *       * *           * * *       * * *       * * *
Login or Register to remove this ad.