Hari-Hara (Shin Megami Tensei: Digital Devil Saga) Guitar Tab

Submitted: Mar 24, 2013 by Aleph

5
Average: 5 (1 vote)
Download | Listen
Game: Shin Megami Tensei: Digital Devil Saga
Composer(s): Shoji Meguro
Style: Transcription
Series: Megami Tensei

AutoScroll: Slow | Medium | Fast
Hari-Hara
Digital Devil Saga
Tabbed by Aleph for guitar
3/19/2013


E|-----------------------7-------------------7----------------------------------------------|
B|-----------5-----8--5----------------5--------8--5----------------------------------------|
G|-----5--------5----------------5--------5-------------------------------------------------|
D|--7-----7-------------------7-----7-------------------------------------------------------|
A|------------------------------------------------------------------------------------------|
E|------------------------------------------------------------------------------------------|

E|------------------------------------------------------------------------------------------|
B|------------------------------------------------------------------------------------------|
G|------------------------------------------------------------------------------------------|
D|--7----------7---------7-7-7-7-7-7-7-7-77----7--7---7--8-8---7--7---7-8-5-----------------|
A|--7----------7---------7-7-7-7-7-7-7-7-77----7--7---7--8-8---7--7---7-8-5-----------------|
E|--5----------5---------5-5-5-5-5-5-5-5-55----5--5---5--6-6---5--5---5-6-3-----------------|
                         * * * * * * * *  
E|----------------7---------------------------7---------------------------------------------|
B|--8---------------------------8-----------------------------------------------------------|
G|-----9w~~~~--------9w~~~~--------9w~~~~--------9w~~~~-------------------------------------|
D|------------------------------------------------------------------------------------------|
A|------------------------------------------------------------------------------------------|
E|------------------------------------------------------------------------------------------|

E|------------------------------------------------------------------------12----------------|
B|--12--12--12/13---------12--12--13--15b17~~~--15b17r15--13--15--13--15------13------------|
G|-----------------14~------------------------------------------------------------14~-------|
D|------------------------------------------------------------------------------------------|
A|------------------------------------------------------------------------------------------|
E|------------------------------------------------------------------------------------------|
                        1/4 bend on G8s
E|------------------------------------------------------------------------------------------|
B|--12--12--12/13-------------------------------12--12--13--15b17---------------------------|
G|-----------------14~----8-8-8-8-8-8-7-----------------------------------------------------|
D|--------------------------------------10-7~-----------------------------------------------|
A|------------------------------------------------------------------------------------------|
E|------------------------------------------------------------------------------------------|

Login or Register to remove this ad.